» » »

Misc Scales, Circle Of Fifths Bass tabs (ver.1)

Artists:  A B C D E F G H I J K L M N O P Q R S T U V W X Y Z # 

Circle Of Fifths Bass tabs (ver.1)

Misc Scales Tabs
Rating:
0/5 (0 votes)
Circle Of Fifths lessons Tabs too difficult? Try these video lessons and learn fast
                "(1)
THIS IS A GREAT PATTERN TO TUNE THE EAR BECAUSE IT HAS ALMOST ALL
PITCH AND ALL THAT GEAR. 
G-----------2-4-5----------------------------4-6-7-----------------
D-----2-3-5-----------------2-4-5------4-5-7-----------------4-6-7-
A-3-5-----------------2-3-5--------5-7-----------------4-5-7-------
E-----------------3-5------------------------------5-7-------------

G-----------6-8-9-----------------------------------------------3-5-6-
D-----6-7-9-----------------6-8-9---------------1-3-4-----3-4-6-------
A-7-9-----------------6-7-9---------------1-2-4-------4-6-------------
E-----------------7-9-----------------2-4-----------------------------

G----------------------------5-7-8------------------------------------
D-----------3-5-6------5-6-8-----------------------------------------------
A-----3-4-6--------6-8-------------------------------------------------
E-4-6------------------------------------------------------------------

By playing this simple pattern you can get the root notes for any notes.
Meaning if you want you'd be able to make the major chord of it.
This is a great fun tab and really good for a beginner.

"Just because i am invicible it doesn't mean i am a superhero"
"            

comments powered by Disqus
↑ Back to top | Misc Scales Bass for Circle Of Fifths. Lyrics for acoustic guitar and electric guitar. Tablatures and chords are parodies/interpretations of the original songs. You may use it for private study, scholarship, research or language learning purposes only