» » »

Blues Riffs Tabs (ver.1)

Artists:  A B C D E F G H I J K L M N O P Q R S T U V W X Y Z # 

Blues Riffs Tabs (ver.1)

Misc Scales
Rating:
0/5 (0 votes)

Hard to play? Try these video lessons and learn fast.
                here are the simple riffs that make up blues.  these are best on an 
electric guitar.  remember...blues is slow, its in triplets.



------5-8p5|--------/5-5-5-5-5------|
----5------|----5-7-/5-5-5-5-5-7-5--|
-7b--------|-/6----------------7-5-6|
-----------|-----------------------7|
-----------|------------------------|
-----------|------------------------|

-10b--10-8--------|------5----|--------------10-12----------------|
-----------10-8-10|----5---/10|----10----12b-------12b-10h12----10|
------------------|5h6--------|/11----11---------------------11---|
------------------|-----------|-----------------------------------|
------------------|-----------|-----------------------------------|
------------------|-----------|-----------------------------------|

-5-----------------|--------------------|
-5------7----5-5---|--------------------|
---8p5--7----5-6---|--------------------|<
-----------7------7|--------------------|<
-----------7-------|2-2-4-4-5-5-4-4-2-2-|<same thing as on the left
-------------------|0-0-0-0-0-0-0-0-0-0-| but use these strings

------------------|
------------------|<
------------------|<
------------------|<
-2-2-4-4-2-2-----2|also use these strings
-0-0-0-0-0-0-3h4--|
            
Hard to play? Try these video lessons and learn fast. | Correct




comments powered by Disqus
↑ Back to top | Tablatures and chords are parodies/interpretations of the original songs. You may use it for private study, scholarship, research or language learning purposes only