» » »

Scooter296 Awsome Western Tabs (ver.1)

Artists:  A B C D E F G H I J K L M N O P Q R S T U V W X Y Z # 

Scooter296 Awsome Western Tabs (ver.1)

Misc Riffs
Rating:
0/5 (0 votes)

Hard to play? Try these video lessons and learn fast.
                (Riff)
I DON'T KNOW WHAT THIS IS FROM, BUT IT SOUNDS LIKE SOMETHING
OUT OF A WESTERN MOVIE.
IT SOUNDS BEST WHEN PLAYED FAST.

E ------------------------------------------------
B ------------------------------------------------
G ------------------------------------------------
D --------------2-----2-----2----2-----2----2-----
A -----0--2--3-----------3----------3----------3--
E --3--------------3-----------3----------3-------

Continue:
E -------------------------------------------
B -------------------------------------------
G -----------2----2-----2-----2-----2-----2--
D --0--2--3----------3-----------3-----------
A --------------3----------3-----------3-----
E -------------------------------------------

Continue:
E -----------------------------
B -----------------------------
G -----------------------------
D --3--2--0-----2-----2-----2--
A -----------3-----------3-----
E -----------------3-----------......IT COULD GO ON FOREVER
            
Hard to play? Try these video lessons and learn fast. | Correct




comments powered by Disqus
↑ Back to top | Tablatures and chords are parodies/interpretations of the original songs. You may use it for private study, scholarship, research or language learning purposes only