» » »

Mysteryman 23145 Hotttt Blues Tabs (ver.1)

Artists:  A B C D E F G H I J K L M N O P Q R S T U V W X Y Z # 

Mysteryman 23145 Hotttt Blues Tabs (ver.1)

Misc Riffs
Rating:
0/5 (0 votes)

Hard to play? Try these video lessons and learn fast.
                (Riff)
e----------------------------------------------------------------------------------------------
b------------------0---2---0----------------------------2--0-----------------------------------
g------------------0---2---0------2/-3-3-3-3-3-3-3-3-3--2--0-----------------------------------
d--x-----------2---0---2---0------3/-4-4-4-4-4-4-4-4-4--2--0-----------------------------------
a--x-------------------------------------------------------------------------------------------
E--x---0-3h4-----------------------------------------------------------------------------------
 

then you can solo in E or something



heres another one




e------------------------------5-5-5-5-5---------------------------------------------------------
b-----2-----------2------------x-x-x-x-x---------------------------------------------------------
g-----2-----------2------------5-5-5-4-2---------------------------------------------------------
d-----2-----------2------------------------------------------------------------------------------
a-0-------0-3h4----------------------------------------------------------------------------------
E------------------------------------------------------------------------------------------------


hope you like them
            
Hard to play? Try these video lessons and learn fast. | Correct




comments powered by Disqus
↑ Back to top | Tablatures and chords are parodies/interpretations of the original songs. You may use it for private study, scholarship, research or language learning purposes only