>
 >
Mccain Him Mat Me

Mccain Him Mat Me Guitar Tabs

Misc Riffs - Mccain Him Mat Me chords, tabs, tablatures, lyrics

Guitar lessons | Add/correct | Request | Top 50 tabs Artists:  A B C D E F G H I J K L M N O P Q R S T U V W X Y Z 0-9

Mccain Him Mat Me Guitar Tabs – Misc Riffs

CD, Sheet music, Poster

Do you like Mccain Him Mat Me? Share with your friends now
Tabs
xX--------CREATION_1----------Xx

RIFF:
E|-0-3-----------0-3----------
A|-----0-3-0-3-5-----0-3-5^^^-
D|----------------------------
G|----------------------------
B|----------------------------
E|----------------------------


	Chords :

|--0--3--------------0--3-------------|-1/2/3-|
|--2--5--------------2--5-------------|-------|
|--------0--0--3--5--------5--5--3--0-|-------|
|--------2--2--5--7--------7--7--5--2-|-------|
|-------------------------------------|-------|
|--0--3--------------0--3-------------|-------|



	SCALE :    USE ONLY THE SCALE



|--0--3--------------------------------------|
|--------0--3--5-----------------------------|
|-----------------3--5-----------------------|
|-----------------------3--5--7--------------|
|--------------------------------6--8--------|
|---------------------------------------6--8-|


|--12h14-------------------------------------------------|
|----------12h14h16--------------------------------------|
|----------------------14h16-----------------------------|
|------------------------------14h16h18------------------|
|------------------------------------------17h19---------|
|--------------------------------------------------17h19-|



Notes:    use HEAVY distortion i.e. SMASH BOX at setting alredy used
		play fast - practice lots
			dont be afraid to experiment
				take SAMPLES from DAFT PUNK
					use BENDS  ( ^ ) - H's  ( h )  
						dont JUMP from a HIGH 
							SLOW and FAST   
								 

	SOLO :

         ========================
|--0h3^v^-------------------------------0---------------------------------------
|--------------------------------5^-0-3---5-------------------------------------
|-------------------------------------------3-----5-----5------------5----------
|---------------------------------------------5-3---5-3---3--7^^^^^^---3h5p3h5-7
|-------------------------------------------------------------------------------
|-------------------------------------------------------------------------------

 ---------------------------------|
 ---------------------------------|
 ---------------------------------|
 ------------7---7---7---7---7p5h7|
 6^^-----6h8---8---8--------------|
 ----8p6---------------8---8------|


|----------12h14v^v^v^---------------------------------------------------------
|----------------------14h16p14p16p14h16---------------------------------------
|----------------------------------------14^16^--------------------------------
|-----------------------------------------------18p16h18-18^^^^^^^-------------
|-----------------------------------------------------------------17-19^-19^^^^
|------------------------------------------------------------------------------
 

 --------------------------------------14-12^^-|
 -----------------------------16p14p12---------|
 -----------------------16p14------------------|
 --------------18p16p14------------------------|
 --------19p17---------------------------------|
 -19^p17---------------------------------------|

RIFF HERE

|----------------------------------------------------------------------14p12-|
|-------------------------------------------------------------16p14p12-------|
|--5-3-----------------------------------------------------------------------|
|------5-7------------18^----------------------18-------18-16----------------|
|----------6h8------------17h19----19p17^^^^^^----19-17----------------------|
|--------------6h8^^^-----------19-------------------------------------------|





Comments


Popular Misc Riffs tabs & chords
Alice 22 Little Blues Riff Different Than Others Tabs
Darren316 Alternate Picking Tabs
Darren316 Skipping Tabs
Fretbuzz Mexican Diddy Tabs
Guitarman916 Some Spanish Riff Tabs
Madguitartskillz Christmas Song I Wrote Tabs
Rarocker Misc Riff Tabs
Ryan13579 Mexican Song Complete Tabs
Thelegend987 C Minor Lick Tabs
Twisterboy1991 My Little Song Tabs


Song lyrics



↑ Back to top | Tablatures and chords are parodies/interpretations of the original songs. You may use it for private study, scholarship, research or language learning purposes only
© 2014 AZChords.com Contact us | Privacy policy | DMCA | Add/correct tabs | Request tabs | Top 50 tabs