» » »

Lamentations Sweet Little Riffs Tabs (ver.1)

Artists:  A B C D E F G H I J K L M N O P Q R S T U V W X Y Z # 

Lamentations Sweet Little Riffs Tabs (ver.1)

Misc Riffs
Rating:
0/5 (0 votes)

Hard to play? Try these video lessons and learn fast.
                some little riffs i made


A1
|---------0--2--3--2-----------2--3--5--3--------3--5--7--5--3--5-|
|-------0--0--0--0-----------0--0--0--0--------0--0--0--0--0--0---|
|-----------------------------------------------------------------|
|-----------------------------------------------------------------|
|-----------------------------------------------------------------|
|--0--------------------0------------------0----------------------|
A2
|-----0-2-3-2------3-5-7-5----7-5-3-5-3-2-------------------------|
|----0-0-0-0-0----0-0-0-0----0-0-0-0-0-0--------------------------|
|-----------------------------------------------------------------|
|-----------------------------------------------------------------|
|-----------------------------------------------------------------|
|--0------------0----------0--------------------------------------|
A3
|----0-2-0-----0-3-0----3-5-7-5------7-5-3-----5-3-2----2-3-2-0---|
|---0-0-0-0---0-0-0-0--0-0-0-0------0-0-0-0---0-0-0-0--0-0-0-0----|
|-----------------------------------------------------------------|
|-----------------------------------------------------------------|
|-----------------------------------------------------------------|
|-0----------0--------0------------0---------0--------0-----------|


A3
|----1-0-1-3-1-0-1------1-0-1-3-1-0-1-----------------------------|
|-33--3-3-3-3-3-3-3-3-11-1-1-1-1-1-1--3---------------------------|
|-----------------------------------------------------------------|
|-----------------------------------------------------------------|
|-----------------------------------------------------------------|
|-----------------------------------------------------------------|


B1
|------------------------------------------------|
|------------------------------------------------|
|-------0----------0-------------0--------0------|
|----4----4-----4-----4-------4-----4--------4---|
|-------------0-------------2-----------2--------|
|-3----------------------------------------------|
B2
|-----------------------------------------------------------------------|
|-----------------------------------------------------------------------|
|---------0----0H2----------0----2---------------2---0-------2-------0--|
|------4-----4-----------4----4----------------4---4----4-------4-------|
|---5-----------------5---------------------0--------------0-------0----|
|-----------------------------------------------------------------------|


C1
|-----------------------------------------------------------------------|
|-----------------------------------------------------------------------|
|---4---0------0---0--4-0-------4-0-------0-2--0------------------------|
|-2---2------0---0------------4---------2-------------------------------|
|---------------------------3---------0---------------------------------|
|-----------------------------------------------------------------------|
C2
|-----------------------------------------------------------------------|
|-----------------------------------------------------------------------|
|-4-p-0-h-4--0---0--2-sl-4---------4-p-0-h-4--0---0--2-4-2--------------|
|-2----------2---0-----------------2----------2---0--0------------------|
|-----------------------------------------------------------------------|
|-----------------------------------------------------------------------|
C3
|----------------------------------------------------------------------|
|----------------------------------------------------------------------|
|----------------------------------------------------------------------|
|---4-2--4---2sl4--------4-0-2---4sl2----------------------------------|
|-2--------------------0-----------------------------------------------|
|----------------------------------------------------------------------|

D1
|----------------------------------------------------------------------|
|----------------------------------------------------------------------|
|------------------------------------0--0---0--0--0--0-2---------------|
|--0--0------0--0-----0--0---2------4--4---4--4--4--4--4---------------|
|-2--2------2--2-----4--4----4-----0--0---2--2--5--5---5---------------|
|0--0------3--3-----5--5-----5-----------------------------------------|


E1
|----------------------------------------------------------------------|
|----------------------------------------------------------------------|
|----------------------------------------------------------------------|
|-------0-2-0-----------0-2-0-----------0-2-0-----------0-2-0----------|
|---0-4-------4-0---0-4-------4-0---0-4-------4-0---0-4-------4-0------|
|-3---------------3---------------2---------------2--------------------|

E2
|----------------------------------------------------------------------|
|----------------------------------------------------------------------|
|----------------------------------------------------------------------|
|-------0-2-0---------0-2-0-------------0---0---0-------0---0----------|
|---0-4-------0-4---4-------4-0-----0-4---4---4-----0-4---4---4-0------|
|-0---------------0---------------3---------------3--------------------|

E3
|----------------------------------------------------------------------|
|----------------------------------------------------------------------|
|----------------------------------------------------------------------|
|-------0---0---0-------0-2-0-----------0-----------0------------------|
|---0-4---4---4------0-4------4-2----0-2--4-2---0-2---4-2-0------------|
|-2----------------2---------------0----------0------------------------|



this is my first submission, if you hate it e-mail me, if you like it do the same
            
Hard to play? Try these video lessons and learn fast. | Correct




comments powered by Disqus
↑ Back to top | Tablatures and chords are parodies/interpretations of the original songs. You may use it for private study, scholarship, research or language learning purposes only