» » »

Misc Riffs, Improvs G Pentatonic Figures Tabs (ver.1)

Artists:  A B C D E F G H I J K L M N O P Q R S T U V W X Y Z # 

Improvs G Pentatonic Figures Tabs (ver.1)

Misc Riffs Tabs
Rating:
0/5 (0 votes)
Hard to play? Try these video lessons and learn fast.
                **I only tab for Guitar Tab Universe!**


Tuning: Standard (EADGBe)

Notes: good practice for ya!


G Pentatonic Figures

Fig.1
e-|--------------------------------0--3--|--3--0--------------------------------|
B-|--------------------------0--3--------|--------3--0--------------------------|
G-|--------------------0--2--------------|--------------2--0--------------------|
D-|--------------0--2--------------------|--------------------2--0--------------|
A-|--------0--2--------------------------|--------------------------2--0--------|
E-|--0--3--------------------------------|--------------------------------3--0--|

Fig.2
e-|--------------------------------3--5--|--5--3--------------------------------|
B-|--------------------------3--5--------|--------5--3--------------------------|
G-|--------------------2--4--------------|--------------4--2--------------------|
D-|--------------2--5--------------------|--------------------5--2--------------|
A-|--------2--5--------------------------|--------------------------5--2--------|
E-|--3--5--------------------------------|--------------------------------5--3--|

Fig.3
e-|--------------------------------5--7--|--7--5--------------------------------|
B-|--------------------------5--8--------|--------8--5--------------------------|
G-|--------------------4--7--------------|--------------7--4--------------------|
D-|--------------5--7--------------------|--------------------7--5--------------|
A-|--------5--7--------------------------|--------------------------7--5--------|
E-|--5--7--------------------------------|--------------------------------7--5--|

Fig.4
e-|--------------------------------7--10-|-10--7--------------------------------|
B-|--------------------------8--10-------|-------10--8--------------------------|
G-|--------------------7--9--------------|--------------9--7--------------------|
D-|--------------7--9--------------------|--------------------9--7--------------|
A-|--------7--10-------------------------|-------------------------10--7--------|
E-|--7--10-------------------------------|-------------------------------10--7--|

Fig.5                                          
e-|-------------------------------10--12-|-12--10-------------------------------|
B-|-------------------------10--12-------|-------12--10-------------------------|
G-|--------------------9--12-------------|-------------12--9--------------------|
D-|--------------9--12-------------------|-------------------12--9--------------|
A-|-------10--12-------------------------|-------------------------12--10-------|
E-|-10--12-------------------------------|-------------------------------12--10-|



Practice
e-|--------------------------------0--3--|--5--3--------------------------------|
B-|--------------------------0--3--------|--------5--3--------------------------|
G-|--------------------0--2--------------|--------------4--2--------------------|
D-|--------------0--2--------------------|--------------------5--2--------------|
A-|--------0--2--------------------------|--------------------------5--2--------|
E-|--0--3--------------------------------|--------------------------------5--3--|

e-|--------------------------------5--7--|-10--7--------------------------------|
B-|--------------------------5--8--------|-------10--8--------------------------|
G-|--------------------4--7--------------|--------------9--7--------------------|
D-|--------------5--7--------------------|--------------------9--7--------------|
A-|--------5--7--------------------------|-------------------------10--7--------|
E-|--5--7--------------------------------|-------------------------------10--7--|

e-|-------------------------------10--12-|-12--10-------------------------------|
B-|-------------------------10--12-------|-------12--10-------------------------|
G-|--------------------9--12-------------|-------------12--9--------------------|
D-|--------------9--12-------------------|-------------------12--9--------------|
A-|-------10--12-------------------------|-------------------------12--10-------|
E-|-10--12-------------------------------|-------------------------------12--10-|

e-|--------------------------------7--10-|--7--5--------------------------------|
B-|--------------------------8--10-------|--------8--5--------------------------|
G-|--------------------7--9--------------|--------------9--7--------------------|
D-|--------------7--9--------------------|--------------------7--5--------------|
A-|--------7--10-------------------------|--------------------------7--5--------|
E-|--7--10-------------------------------|--------------------------------7--5--|

e-|--------------------------------3--5--|--3--0--------------------------------|
B-|--------------------------3--5--------|--------3--0--------------------------|
G-|--------------------2--4--------------|--------------2--0--------------------|
D-|--------------2--5--------------------|--------------------2--0--------------|
A-|--------2--5--------------------------|--------------------------2--0--------|
E-|--3--5--------------------------------|--------------------------------3--0--|
            

comments powered by Disqus
↑ Back to top | Misc Riffs Tabs for Improvs G Pentatonic Figures. Lyrics for acoustic guitar and electric guitar. Tablatures and chords are parodies/interpretations of the original songs. You may use it for private study, scholarship, research or language learning purposes only