» » »

Berb Simple Riffs 1 And Tabs (ver.1)

Artists:  A B C D E F G H I J K L M N O P Q R S T U V W X Y Z # 

Berb Simple Riffs 1 And Tabs (ver.1)

Misc Riffs
Rating:
0/5 (0 votes)

Hard to play? Try these video lessons and learn fast.
                Simple Riffs #1
By Jess Berb

E----------------------------------------------------------------

B----------------------------------------------------------------

G----------------------------------------------------------------

D----------------------------------------------------------------

A----------------------0---------0--------------------2-------------

E----0--0---1---2--------2--------22----1---0----------0--0-----pause-----    repeat from beginning

Simple Riffs #2
By Jess Berb
Play it slow
(Zelda's Lullaby)
E-------------------------------------------5---3------------------

B-------3-------------------3-----------3-----------2----------------

G---4-------2------2----4-------2---4------------------5---4---2----------

D---------------5-------------------------------------------------

A----------------------------------------------------------------

E---------------------------------------------------- --
            
Hard to play? Try these video lessons and learn fast. | Correct




comments powered by Disqus
↑ Back to top | Tablatures and chords are parodies/interpretations of the original songs. You may use it for private study, scholarship, research or language learning purposes only