» » »

How Great Thou Art Tabs (ver.1)

Artists:  A B C D E F G H I J K L M N O P Q R S T U V W X Y Z # 

How Great Thou Art Tabs (ver.1)

Misc Praise Songs
Rating:
5/5 (2 votes)

Hard to play? Try these video lessons and learn fast.
                How Great Thou Art. 

O my Lord God, when I in awesome wonder..............
e|----------------------------------------------|
B|----------------------------------------------|
G|----------------0-0--0---0-0-0----------------|
D|-3-3-3-0---3-3-3----1----------3-0-3-3-1-1-0--| Repeat Once
A|----------------------------------------------| Then go on to the 
E|----------------------------------------------| Refrain

 refrain
Then Sings my soul, my savior...........
e|----------------------------------------------|
B|-----3-1--------------------------------------|
G|---3-----3-2-3-0--3-3-2-----0-----------------|
D|3-3-------------3---------3---3-0-------------|
A|------------------------3---------------------|
E|----------------------------------------------|

e|----------------------------------------------|
B|------3-1----------------1--3-4---------------|
G|----3----3-2-3-0---3-2-3--------2-3-----------| 
D|3-3--------------3----------------------------| 
A|----------------------------------------------|now reapeat the whole 
E|----------------------------------------------|thing for 3 more verses

                         How great thou art.



                                See you in Church, Chris

 
            
Hard to play? Try these video lessons and learn fast. | Correct




comments powered by Disqus
↑ Back to top | Tablatures and chords are parodies/interpretations of the original songs. You may use it for private study, scholarship, research or language learning purposes only