» » »

No Boundaries Tabs (ver.1)

Artists:  A B C D E F G H I J K L M N O P Q R S T U V W X Y Z # 

No Boundaries Tabs (ver.1)

Misconduct
Rating:
0/5 (0 votes)

Hard to play? Try these video lessons and learn fast.
                Misconduct - No boundaries

Awsome song and very easy!

Tm = Times

 Intro: Listen to the intro and you will find it!
E|------------------------------------------------------------------------|
B|------------------------------------------------------------------------|
G|--------------------------------------------------------7---------------|
D|--------------------------------------------------------5-(8Tm)---------|
A|-9-9-9-9---5-7-7----5-7----7-7-7-7-7-7-7-5-5-5-5-5-5-5-5----------7-----|(8Tm)
E|-7-7-7-7---3-5-9----7-9----9-9-9-9-9-9-9-3-3-3-3-3-3-3-3----------5-----|

 Verse: Pm
E|---------------------------------------|
B|---------------------------------------|
G|---------------------------------------|
D|-----------------------7---------------|
A|-5-7-9-9-------5-------5-(8Tm)-7-------|
E|-3-5-7-7-(8Tm)-3-(8Tm)---------5-(8Tm)-|

 Ref:
E|----------------------------------------------------------------|
B|----------------------------------------------------------------|
G|----------------------------------------------------------------|
D|------------------------7-7-7-7---------------------------------|
A|-5-7-9--9-9-9-9-5-5-5-5-5-5-5-5-7-7-7-7-7-7-5-7-9---------------|
E|-3-5-7--7-7-7-7-3-3-3-3---------5-5-5-5-5-5-3-5-7---------------|

Riff 1 :
E|----------------------------------------------------------------|
B|----------------------------------------------------------------|
G|----------------------------------------------------------------|
D|----------------------------------------------------------------|
A|--7-5-----------------------------------------------------------|
E|------7-5-3-5-7-------------------------------------------------|

Riff 2 :
E|----------------------------------------------------------------|
B|----------------------------------------------------------------|
G|----------------------------------------------------------------|
D|--------------7-7-7---------------------------------------------|
A|--9-9-9-5-5-5-5-5-5-7-7-7-7-7-7---------------------------------|
E|--7-7-7-3-3-3-------5-5-5-5-5-5---------------------------------|

Riff 3 :
E|-----------------------------------------------------------------|
B|-----------------------------------------------------------------|
G|------7-----------7-7-11-7-9-7--7--------------------------------|
D|--9-9---9-7-7-9-7--------------9---------------------------------|
A|-----------------------------------------------------------------|
E|-----------------------------------------------------------------|


Youst listening on the song en you will easy pick it up ;). Ps. This is oen of my firs 
so its not mabey right but its sounds good to me ;). ROCK HARD!!!
            
Hard to play? Try these video lessons and learn fast. | Correct




comments powered by Disqus
↑ Back to top | Tablatures and chords are parodies/interpretations of the original songs. You may use it for private study, scholarship, research or language learning purposes only