» » »

Misc Country, Freight Train Tabs (ver.2)

Artists:  A B C D E F G H I J K L M N O P Q R S T U V W X Y Z # 

Freight Train Tabs (ver.2)

Misc Country Tabs
 Rating:
4/5 (4 votes)
Freight Train lessons Tabs too difficult? Try these video lessons and learn fast
1
                Freight Train - Trad. Arr: A.Birney


                 C                             G              G7
e|-----------||--3------0----|--------------|---------3----|--1-----------|
B|-----------|*--------------|--3-----1-----|--0---0-------|--------------|
G|-----------||--------------|--------------|--------------|--------------|
D|-----------||-----2--------|-----2-----2--|-----0-----0--|-----0-----0--|
A|-----0--2--|*--3--------2--|--3-----------|--------------|--------------|
E|--3--------||--------3-----|--------3-----|--3-----3-----|--3-----3-----|
                 m      i       m     i
                 p  p  p  p     p  p  p  p
                

                       G7                      C
              |--5------1----|--0-----------|---------3----|--0-----------|
              |--------------|--------3-----|--1-----------|--------------|
              |--------------|--------------|--------------|--------------|
              |-----0-----0--|-----0-----0--|-----2-----2--|-----2-----2--|
              |--------------|--------------|--3-----------|--3-----------|
              |--5-----3-----|--3-----3-----|--------3-----|--------3-----|     


                                            _______________________________
                 E                    E7    I  F
              |--0------1----|--0-----------|--------------|--------------|
              |--------------|--------3-----|--1------3----|--1------3----|
              |--------------|--------------|--------------|--------------|
              |-----2-----2--|-----2-----2--|-----3-----3--|-----3-----3--|
              |--------------|--------------|--------------|--------------|
              |--0-----0-----|--0-----0-----|--1-----1-----|--1-----1-----|


                                             ______________________________
   C              G              C     G     1. C            2. C
|--0-----------|--------------|--------------|--------------||------------||
|---------1----|------0--3----|--1------0----|--1-----------*|--1------1--||
|--------------|--0-----------|--------------|--------------||--0------0--||
|-----2-----2--|-----0-----0--|-----2-----0--|--------------||------------||
|--3-----------|--------------|--3-----------|--3-----0--2--*|--3------3--||
|--------3-----|--3-----3-----|--------3-----|-----3--------||------------||


        Comments, corrections, suggestions & flames welcome.
            
Submit corrections

comments powered by Disqus
↑ Back to top | Misc Country Tabs for Freight Train. Lyrics for acoustic guitar and electric guitar. 1 Tablatures and chords are parodies/interpretations of the original songs. You may use it for private study, scholarship, research or language learning purposes only