» » »

Flop Eared Mule Tabs (ver.2)

Artists:  A B C D E F G H I J K L M N O P Q R S T U V W X Y Z # 

Flop Eared Mule Tabs (ver.2)

Misc Country
Rating:
0/5 (0 votes)

Hard to play? Try these video lessons and learn fast.
                #
Lines: 78


Pick-up measure
  N/C        
  |   |   |   |    
|-----------------|
|-------------3/--|
|-----------------|
|-----------------|
|-----------------|
|-----------------|

Part A
  C                                   G                 C
1 |   |   |   |   2 |   |   |   |   3 |   |   |   |   4 |   |   |   |   
|-----------------|-----------------|-----------------|-----------------|
|/5--\3---1-------|-----------------|-----------------|---------------3/|
|*------------2---|-0-2-0-----------|-------0---------|---------0-------|
|*----------------|-------3-2-0---2-|-0-2-3---3-2-0---|---0-2-3---------|
|-----------------|-------------3---|---------------2-|-3---------------|
|-----------------|-----------------|-----------------|-----------------|

                                                      _1________________
                                      G               | C
5 |   |   |   |   6 |   |   |   |   7 |   |   |   |   8 |   |   |   |   
|---3---0---------|-----------------|-----------------|-----------------|
|/5---4---1-------|-----------------|-----------------|---------1---3/--|
|-------------2---|-0-2-0-----------|-------0---------|-------0--------*|
|-----------------|-------3-2-0---2-|-0-2-3---3-2-0---|---0-2----------*|
|-----------------|-------------3---|---------------2-|-3---------------|
|-----------------|-----------------|-----------------|-----------------|

_2________________
| G
16|   |   |   |   
|-----------------|
|---------1-------|
|-------0---------|
|---0-2-----------|
|-3---------------|
|-----------------|

Part B
  G                                   D                 G
17|   |   |   |  18 |   |   |   |  19 |   |   |   |  20 |   |   |   |   
|-3-------3-------|-----------------|-----------------|-----------------|
|-3-------3-------|-3-5-3-----------|-----------------|-----0---3-------|
|*----4-------4---|-------4\2-0-----|-------0-2-0---2-|-0-2---5---------|
|*----------------|-------------2---|-0-2-4-------4---|-----------------|
|-----------------|-----------------|-----------------|-----------------|
|-----------------|-----------------|-----------------|-----------------|

  G                                   D                 G
21|   |   |   |  22 |   |   |   |  23 |   |   |   |  24 |   |   |   |   
|-3-------3-------|-----------------|-----------------|-----------------|
|-3-------3-------|-3-5-3-----------|-----------------|-----------------|
|-----4-------4---|-------4\2-0-----|-------0-2-0---2-|-0-2-4-2-0------*|
|-----------------|-------------4-2-|-0-2-4-------4---|----------------*|
|-----------------|-----------------|-----------------|-----------------|
|-----------------|-----------------|-----------------|-----------------|


NOTES: That's a 3-5-3 slide in the first measure.

Enjoy


-Bo Parker

"All the boys go, 'Hey Goo, what's new?'"
"And my friend Goo just goes, 'Peeee Yeeew!'"
"And my friend Goo just goes, 'Peeee Yeeew!'"
            
Hard to play? Try these video lessons and learn fast. | Correct




comments powered by Disqus
↑ Back to top | Tablatures and chords are parodies/interpretations of the original songs. You may use it for private study, scholarship, research or language learning purposes only