>
 >
Dixie

Dixie Guitar Tabs

Misc Country - Dixie chords, tabs, tablatures, lyrics

Guitar lessons | Add/correct | Request | Top 50 tabs Artists:  A B C D E F G H I J K L M N O P Q R S T U V W X Y Z 0-9

Dixie Guitar Tabs – Misc Country

CD, Sheet music, Poster

Do you like Dixie? Share with your friends now
TabsTabs v2
#
Lines: 130
X-Newsreader: News Xpress Version 1.0 Beta #4

This is the version of Dixie played on the Ken Burns Civil
War documentary by Bobby Horton (sp?).

If you finger the chords for the second part (just E B and G
strings) it sounds better even though you don't play them.
                                    
First Part:

          G                             G7
E-----------3-----3-----------------3-----3-----------3----
B--3--0--------------------0--1--3-----3-----3--0----------
G--------0-----0-----0--2----------------------------------
D--------------------------------------------3-------------
A--------------------------------------------------2-------
E--------3-----------------------3-------------------------


    C    
E---0-----0-----0-----------0-----------0--2--3--5---------
B---------------------1--3--------1--3---------------------
G------0-----0-----0-----------0---------------------------
D----------------------------------------------------------
A---3-----------2-----------0-----------------------------
E----------------------------------------------------------

                                    

    G                   Em (strum)
E---7-----------7---------------7----------------0--------
B---------8-----------7h8------8--------------8-----------
G------7-----7-----------9----9------9-----9--------------
D---0------------------------9----------9-----------------
A---------------------------7-----------------------------
E---------------------------------------------------------

                                    

           D                      G               
E------------2-----2-----------------3--------3--]  Play
B---3--0--3-----------3--------------------3-----]  Twice
G---------------2--------4--2--4--0-----0--------]
D---------0--------------------------------------]
A------------------------------------------------]
E---------------------------------3--------------]

                                    
Second Part:
chords G xx5433
        g? xx0787
        D  xx0775
        C  xx0553

   G        G?     D    G     C  
E-----3-----7-----5-----3-----------3--------------0-------
B--3--------------------------5--------0--------1----------
G--------0-----0-----0-----0-----5-----------0-------------
D-----5-----0-----0-----0-----0----------------------------
A-----------------------------------------3----------------
E----------------------------------------------------------

                                    

   A                        D+          D 
E--------------5-----7--5----------------------------------
B--------5--------5--------------8------7------------------
G-----6-----6-----------------7-----7---7------------------
D--------------------------0------------0------------------
A----------------------------------------------------------
E--5-------------------------------------------------------



   G        G     D     G     C  
E-----3-----7-----5-----3-----------------3--5--3-----------
B--3--------------------------5-----5--7------------5-------
G--------0-----0-----0-----0-----5-----------------------
D-----5-----0-----0-----0-----0---------------------------
A----------------------------------------------------------
E----------------------------------------------------------




   G              (strum)   D             G
E-----3--------3------3----------------0-----3--------3
B--3--------3--------3---3--3----------------------3---
G--------4----------4----4--2------3s4----0-----0------
D--5---------------5--------0--------------------------
A-----------------5------------------------------------
E-----------------------------------------3------------

                                    

   D                               G              D(strum)   G
E------0-----0-----------2------0-----3------5s7-----5---5---3
B---------------------3-----3s5----3-------3--------7--------3
G--3s4----2-----2--4--------------------4----------7---------4
D---------0------------------------5--------------0----------5
A-------------------------------------------------------------
E-------------------------------------------------------------

                                    

   D       G                       D 
E-------0-----3--------3--------0-----0-----------2-------0
B-------------------3--------------------------3-----3s5---
G--3s4-----0-----0---------3s4-----2-----2--4--------------
D----------------------------------0-----------------------
A----------------------------------------------------------
E----------3-----------------------------------------------

   G               D(strum)       C
E-----0------5s7------5--5---0-----------0---------------
B--3-------3---------7-----------------1----------1------
G-------4-----------7----------------0---------0-----0---
D--5---------------0-------------------------------------
A---------------------------------3----------2-----------
E--------------------------------------------------------

                                    

                              G           (strum)
E--------------3--2--0--2s5-------------------3--]
B--------1--------------------------3--------3---]
G-----2-----2--------------------4-----4----4----]
D------------------------------------------5-----]
A--0--------------------------------------5------]
E-----------------------------3------------------]

mberg





Comments


Popular Misc Country tabs & chords
Wabash Cannonball Chords
Are There Any More Real Cowboys Tabs
Bed Of Roses Tabs
Ginseng Sullivan Tabs
L O D I Tabs
Six Days On The Road Tabs
Summer Wine Tabs
Alabama Jubilee Ukulele
For The Sake Of The Song Ukulele
Tennessee Mountain Home Ukulele


Song lyrics



↑ Back to top | Tablatures and chords are parodies/interpretations of the original songs. You may use it for private study, scholarship, research or language learning purposes only
© 2014 AZChords.com Contact us | Privacy policy | DMCA | Add/correct tabs | Request tabs | Top 50 tabs