>
 >
Cannonball Rag 1

Cannonball Rag 1 Guitar Tabs

Misc Country - Cannonball  Rag 1 chords, tabs, tablatures, lyrics

Guitar lessons | Add/correct | Request | Top 50 tabs Artists:  A B C D E F G H I J K L M N O P Q R S T U V W X Y Z 0-9

Cannonball Rag 1 Guitar Tabs – Misc Country

CD, Sheet music, Poster

Do you like Cannonball Rag 1? Share with your friends now
TabsTabs v2
Lines: 235

Here is the tab for one of my entries on Tape III.


CANNONBALL RAG, by Merle Travis

Your goal is to play this very fast, but do it slow while learning. 
For best effect muffle the bass strings with the heel of your palm.
The last section, with the bass runs, is the easiest to finger
but the hardest to play right. You have to play the chords at the
beginning of every other measure *just for the first beat* and
then muffle the strings immediately.  This is hard to do. 
And then open it all up for the final cadence.


    |  |  |       |  |  |    |   |     |     |  |   |  |  |    |
    |  |  |       |  |  |    |   |     |     |  |   |  |  |    |

E-----------||-------7---------|-7--------7-------|----7---------|
B-----------||------------5----|----5-------------|---------5----|
G-----------||*------7-------7-|-------7--------7-|----6-------6-|
D---5--4--5-||*------6-------6-|-------6--------6-|----5-------5-|
A-----------||-----------------|------------------|-0-----0------|
E-----------||----0-----0------|-0-----------0----|--------------|


   |     |     |  |   |  |  |    |   |  |    |    |   |  |  |    |
   |     |     |  |   |  |  |    |   |  |    |    |   |  |  |    |

E--7--------7-------|----5---------|-5----6----7----|----3---------|
B-----5-------------|---------5----|----------------|---------3----|
G--------6--------6-|----5-------5-|----5---------5-|----4-------4-|
D--------5--------5-|----4-------4-|----4---------4-|----5-------5-|
A--0-----------0----|-0-----0------|-0-------0------|--------------|
E-------------------|--------------|----------------|-3-----3------|

First ending:      Second ending:

    |  |  |  |       |  |     |  |     |  |  |  |   |  |    |  |
    |  |  |  |       |  |     |  |     |  |  |  |   |  |    |  |

E---3------------||--3-----3-------||--------0----|------0-------|
B----------------||----------------||--3--4-------|-3--4---------|
G---------------*||-----4--------4-||-----5-----5-|----5-------5-|
D------5--4--5--*||-----5--------5-||-----4-----4-|----4-------4-|
A----------------||----------------||--0-----0----|-0-------0----|
E---3------------||--3--------3----||-------------|--------------|


    |  |  |  |     |  |     |  |    |  |  |  |   |  |    |  |
    |  |  |  |     |  |     |  |    |  |  |  |   |  |    |  |

E---------0-----|--------0-------|--------0----|------0-------|
B---3--4--------|--3--4----------|--3--4-------|-3--4---------|
G------4--------|-----4--------0-|-----5-----5-|----5-------5-|
D------0-----0--|-----0--------0-|-----4-----4-|----4-------4-|
A---------------|----------------|--0-----0----|-0-------0----|
E---3-----3-----|--3--------3----|-------------|--------------|


   |  |     |  |   |  |    |    |   |  |  |  |   |  |     |  |
   |  |     |  |   |  |    |    |   |  |  |  |   |  |     |  |

E--------3-------|-3---------0----|------------|-------0-------|
B--0-------------|------0---------|-1-----2----|-3-----------0-|
G----------------|----2-----------|----0-----3-|----4--------1-|
D-----3--------3-|----3---------3-|----2-----4-|----5-----2----|
A----------------|----------------|-3-----4----|-5-------------|
E--3--------3----|-3-------3------|------------|---------------|


   |  |  |     |   |  |     |  |    |  |  |  |   |  |    |    |
   |  |  |     |   |  |     |  |    |  |  |  |   |  |    |    |

E-----7-----5----|-3-----3-------||-4----------|-4---------4----|
B-----------5----|---------------||-------5----|------3---------|
G-----6--------5-|----4--------4-||----4-----4-|----4---------4-|
D-----5--0-------|----5--------5-||----0-----0-|----0---------0-|
A--0-------------|---------------||------------|----------------|
E----------------|-3--------3----||-0-----0----|-0-------0------|


    |  |    |   |    |   |      |   |   |  |  |  |   |  |    |     |
    |  |    |   |    |   |      |   |   |  |  |  |   |  |    |     |

E----------12-----|-------------------|------------|-0----------0----|
B--12-------------|---------10--------|-------7----|------7----------|
G------0-------0--|-12----------------|-5----------|-----------------|
D------11------11-|-----11---------11-|----4-----4-|----4----------4-|
A---0-------0-----|--0----------0-----|-5-----5----|-5-------5-------|
E-----------------|-------------------|------------|-----------------|


   |  |  |  |   |  |     |    |   |  |  |  |   |  |    |    |
   |  |  |  |   |  |     |    |   |  |  |  |   |  |    |    |

E--------3----|-3-----3---------|-4----------|------4-------|
B--3----------|-5----------5----|-------5----|-3------------|
G-----4-----4-|----4----------4-|----4-----4-|----4-------4-|
D-----5-----5-|----5----------5-|----0-----0-|----0-------0-|
A-------------|-----------------|------------|--------------|
E--3-----3----|-3--------3------|-0-----0----|-0-------0----|


    |  |    |   |    |   |      |     |   |  |  |  |   |  |    |     |
    |  |    |   |    |   |      |     |   |  |  |  |   |  |    |     |

E----------12-----|----------------0----|------------|-0----------0----|
B--12-------------|---------10----------|-------7----|------7----------|
G------0-------0--|-12------------------|-5----------|-----------------|
D------11------11-|-----11-----------11-|----4-----4-|----4----------4-|
A---0-------0-----|--0----------0-------|-5-----5----|-5-------5-------|
E-----------------|---------------------|------------|-----------------|


   |  |  |     |   |  |     |  |    |   |   |    |     |   |    |  |
   |  |  |     |   |  |     |  |    |   |   |    |     |   |    |  |
 
E--3-------------|-3-----3-------||-----------0------|-------0-------|
B-----------3----|---------------||-----3------------|-3-------------|
G-----4--------4-|----4--------4-||---5-----5------5-|-----5---------|
D-----5--------5-|----5--------5-||-------4----------|---4-----------|
A----------------|---------------||-5------------5---|----------5----|
E--3-----3-------|-3--------3----||------------------|-------------2-|



   |    |    |    |     |   |    |  |   |   |   |    |
   |    |    |    |     |   |    |  |   |   |   |    |

E---------------------|---------------|-----------0-------|
B--------3-----5------|-3-----5-------|-----3-------------|
G-----4------4------4-|-----4---------|---5-----5-------5-|
D----------5----------|---5-----------|-------4-----------|
A---------------------|-------------4-|-5------------5----|
E--3--------------3---|----------3----|-------------------|


    |   |    |  |   |    |   |    |     |   |    |  |   |  |    |  |
    |   |    |  |   |    |   |    |     |   |    |  |   |  |    |  |

E---------0-------|-------------------|---------------|------0-------|
B---3-------------|------3-----5------|-3-----5-------|-1-------2----|
G-------5---------|---4------4------4-|-----4---------|----0-------3-|
D-----4-----------|--------5----------|---5-----------|----2-------4-|
A------------5----|-------------------|-------------2-|-3-------4----|
E---------------2-|-3-------------3---|----------3----|--------------|


    |  |     |  |   |  |  |     |   |  |     |  |    |  |  |  |
    |  |     |  |   |  |  |     |   |  |     |  |    |  |  |  |

E---------0-------|----7-----5----|-3-----3-------||------------|
B---3-----------0-|----------5----|---------------||-------3----|
G------4--------1-|----6--------5-|----4--------4-||-1----------|
D------5-----2----|----5--0-------|----5--------5-||----0-----0-|
A---5-------------|-0-------------|---------------||------------|
E-----------------|---------------|-3--------3----||-0-----0----|


   |  |    |  |   |  |     |  |   |  |    |  |   |  |  |  |
   |  |    |  |   |  |     |  |   |  |    |  |   |  |  |  |

E--2----0-------|-------------0-|-0----0-------|-------0----|
B---------------|-------2-------|--------------|-3----------|
G---------------|----0--------0-|----0-------0-|----5-----5-|
D-----0-------0-|----2--------2-|----2-------2-|----4-----4-|
A---------------|-0--------0----|-0-------0----|-5-----5----|
E--0-------0----|---------------|--------------|------------|


   |  |     |     |   |  |    |     |   |  |  |  |   |  |  |  |
   |  |     |     |   |  |    |     |   |  |  |  |   |  |  |  |

E--------0-----0----|-----------------|-3----------|------------|
B--3----------------|------3-----5----|------------|-------3----|
G-----5-----------5-|-4-------------4-|----4-----4-|-1----------|
D-----4-----------4-|----5----------5-|----5-----5-|----0-----0-|
A--5--------5-------|-----------------|------------|------------|
E-------------------|-3-------3-------|-3-----3----|-0-----0----|


   |  |    |  |   |  |     |  |   |  |    |  |   |  |     |    |
   |  |    |  |   |  |     |  |   |  |    |  |   |  |     |    |

E--2----0-------|-------0-------|-0----0-------|----0------------|
B---------------|-2-------------|--------------|-------3----3----|
G---------------|----0--------0-|----0-------0-|----5----------5-|
D-----0-------0-|----2--------2-|----2-------2-|----4----------4-|
A---------------|-0--------0----|-0-------0----|-5--------5------|
E--0-------0----|---------------|--------------|-----------------|


   |  |    |  |   |  |  |  |   |  |     |  |     |  |  |  |
   |  |    |  |   |  |  |  |   |  |     |  |     |  |  |  |

E--0-----0------|-3----------|-3-----3-------||-------------|
B---------------|-3----------|---------------||--3----------|
G-----5-------5-|----4-----4-|----4----------||--5----------|
D-----4-------4-|----5-----5-|----5--------0-||--4----------|
A--5-------5----|------------|---------------||--5--0--2--3-|
E---------------|-3-----3----|-3--------3----||-------------|


   |  |  |  |   |  |  |  |   |  |  |  |   |  |  |  |   |  |  |  |

E-------------|-3----------|------------|------------|------------|
B-------------|-0----------|------------|-3----------|------------|
G-------------|-0----------|------------|-5----------|------------|
D--0----------|----4--3--2-|-0----------|-4----------|-0----------|
A-----3--2--0-|------------|----3--2--0-|-5--0--2--3-|----3--2--0-|
E-------------|-3----------|------------|------------|------------|


   |  |  |  |   |  |  |  |   |  |  |     |   |  |    |     |
   |  |  |  |   |  |  |  |   |  |  |     |   |  |    |     |

E--3----------|------------|----------0----|------0----------|
B--0----------|------------|----1----------|-3----------0----|
G--0----------|------------|----0--------3-|----4----------1-|
D-------------|------------|----2--------4-|----5----2-------|
A--------0--1-|-2-----0--2-|-3-----4-------|-5---------------|
E--3--4-------|----3-------|---------------|-----------------|


   |  |  |  |    |

E--7-----5----|--3---||
B--5-----5----|--5---||
G--6-----5----|--4---||
D--5-----0----|--5---||
A--0----------|------||
E-------------|------||





Comments


Popular Misc Country tabs & chords
Alabama Jubilee Tabs
Billy In The Lowground 1 Tabs
Cold Hard Facts Of Life Tabs
Columbus Stockade Blues Tabs
Dueling Banjos 3 Tabs
Freight Train Tabs
Hell Have To Go Tabs
Rocky Top Tabs
God Bless The U S A Ukulele
Up The Lazy River Ukulele


Song lyrics



↑ Back to top | Tablatures and chords are parodies/interpretations of the original songs. You may use it for private study, scholarship, research or language learning purposes only
© 2014 AZChords.com Contact us | Privacy policy | DMCA | Add/correct tabs | Request tabs | Top 50 tabs