» » »

Billy In The Lowground Tabs (ver.1)

Artists:  A B C D E F G H I J K L M N O P Q R S T U V W X Y Z # 

Billy In The Lowground Tabs (ver.1)

Misc Country
Rating:
0/5 (0 votes)

Hard to play? Try these video lessons and learn fast.
                #
Lines: 97



Pick-up measure
  N/C        
  |   |   |   |    
|-----------------|
|-----------------|
|-----------------|
|-----------------|
|---------0---2---|
|-----3-----------|

Part A
  C                                   Am
1 |   |   |   |   2 |   |   |   |   3 |   |   |   |   4 |   |   |   |   
|-----------------|-----------------|-----------------|-----------------|
|---------------0-|-1-0-1-3-1-----1-|-1-----1-1-----0-|-1-----1---------|
|-----------0-2---|-----------2-0---|/2-------2---2---|---2-0---2-0-----|
|-------0-2-------|-----------------|-----------------|-------------2-0-|
|-3-2-3-----------|-----------------|-----------------|-----------------|
|-----------------|-----------------|-----------------|-----------------|

  C                                   Am                C           G
5 |   |   |   |   6 |   |   |   |   7 |   |   |   |   8 |   |   |   |   
|-----------------|-----------------|-----------------|-----------------|
|---------------0-|-1-0-1-3-1-------|-1-----1-------0-|-1---------------|
|-----------0-2---|-----------2-0---|/2-------2---2---|---2-0-----------|
|-------0-2-------|-----------------|-----------------|-------3-2---0---|
|-3-2-3-----------|-----------------|-----------------|-----------3---2-|
|-----------------|-----------------|-----------------|-----------------|

  C                                   Am
9 |   |   |   |  10 |   |   |   |  11 |   |   |   |  12 |   |   |   |   
|-----------------|-----------------|-----------------|-----------------|
|---------------0-|-1-0-1-3-1-----1-|-1-----1-------3/|/5---1-----------|
|-----------0-2---|-----------2-0---|/2-------2-------|---------2-0-----|
|-------0-2-------|-----------------|-----------------|-------------2-0-|
|-3-2-3-----------|-----------------|-----------------|-----------------|
|-----------------|-----------------|-----------------|-----------------|

  C                                   Am                C
13|   |   |   |  14 |   |   |   |  15 |   |   |   |  16 |   |   |   |   
|-----------------|-----------------|-----------------|-----------------|
|---------------0-|-1-0-1-3-1-------|-1-----1-------0-|-1---------------|
|-----------0-2---|-----------2-0---|/2-------2---2---|---2-0-------0---|
|-------0-2-------|-----------------|-----------------|-------3-2-------|
|-3-2-3-----------|-----------------|-----------------|-----------------|
|-----------------|-----------------|-----------------|-----------------|


Part B
  C                                   Am
17|   |   |   |  18 |   |   |   |  19 |   |   |   |  20 |   |   |   |   
|-3-------3-------|-0-----0---------|-5-------5-------|-5-----5---------|
|---------------3-|-----4---3-------|-----4-------4-5-|---4-5-----------|
|*----0-------5---|---5-------5-----|-----------------|-----------------|
|*----------------|-------------7---|-----------------|-----------------|
|-----------------|-----------------|-----------------|-----------------|
|-----------------|-----------------|-----------------|-----------------|

                                                      _1________________
  C                                   Am              | C
21|   |   |   |  22 |   |   |   |  23 |   |   |   |  24 |   |   |   |   
|-3-------3-------|-0-----0-----3-4-|-5-3---0---------|-----------------|
|---------------3-|-----4---3-------|-----4---1-------|-1---------------|
|-----0-------5---|---5-------5-----|-------------2-0-|---2-0----------*|
|-----------------|-----------------|-----------------|-------3-2------*|
|-----------------|-----------------|-----------------|-----------------|
|-----------------|-----------------|-----------------|-----------------|

_2________________
| C
32|   |   |   |   
|-----------------|
|-1---------------|
|---2-0-----------|
|-------2---------|
|---------3-------|
|-----------------|


Enjoy


-Bo Parker

"All the boys go, 'Hey Goo, what's new?'"
"And my friend Goo just goes, 'Peeee Yeeew!'"
"And my friend Goo just goes, 'Peeee Yeeew!'"
            
Hard to play? Try these video lessons and learn fast. | Correct




comments powered by Disqus
↑ Back to top | Tablatures and chords are parodies/interpretations of the original songs. You may use it for private study, scholarship, research or language learning purposes only