» » »

Misc Country, Bill Cheatham Tabs (ver.2)

Artists:  A B C D E F G H I J K L M N O P Q R S T U V W X Y Z # 

Bill Cheatham Tabs (ver.2)

Misc Country Tabs
Rating:
0/5 (0 votes)
Bill Cheatham lessons Tabs too difficult? Try these video lessons and learn fast
                Lines: 96


Pick-up measure
  N/C        
  |   |   |   |    
|-----------------|
|-----------------|
|-----------------|
|-------------0-2-|
|-----------------|
|-----------------|

Part A
  G                                   C
1 |   |   |   |   2 |   |   |   |   3 |   |   |   |   4 |   |   |   |   
|-----------------|-----------------|-----------------|-0-2-3-0---------|
|----/3---3-------|-----------------|-----1-3-1---1-3-|---------3-0-----|
|*---/4---4---0-2-|-4-2-0-4-2-0-----|---0-------------|-------------0---|
|*0---------------|-------------0-1-|-2---------------|---------------2-|
|-----------------|-----------------|-----------------|-----------------|
|-----------------|-----------------|-----------------|-----------------|

                                                      _1________________
  G                                                   | D       G
5 |   |   |   |   6 |   |   |   |   7 |   |   |   |   8 |   |   |   |   
|-----------------|-------------0-2-|-3-0-----0-2-3-0-|-----------------|
|----/3---3-------|-----------------|-----3-0---------|-3-0-------------|
|----/4---4---0-2-|-4-2-0-4-2-0-----|-----------------|-----2---0------*|
|-0---------------|-----------------|-----------------|-------4-----0-2*|
|-----------------|-----------------|-----------------|-----------------|
|-----------------|-----------------|-----------------|-----------------|

_2________________
| D       G
16|   |   |   |   
|-----------------|
|-3-0---------0---|
|-----2---0-----5-|
|-------4---------|
|-----------------|
|-----------------|

Part B
  G       C         D       G                                   D
17|   |   |   |  18 |   |   |   |  19 |   |   |   |  20 |   |   |   |   
|-------3-------3-|-------5---------|-------3-0-2-3-0-|-----------------|
|-3---3---5---5---|-7---7---8---0---|-3---3-----------|-3-0---0-----0---|
|*--4-------5-----|---7-----------5-|---4-------------|-----0---2-----5-|
|*----------------|-----------------|-----------------|-----------------|
|-----------------|-----------------|-----------------|-----------------|
|-----------------|-----------------|-----------------|-----------------|

                                                      _1________________
  G       C         D       G                         | D       G
21|   |   |   |  22 |   |   |   |  23 |   |   |   |  24 |   |   |   |   
|-------3-------3-|-------5-----0-2-|-3-0-----0-2-3-0-|-----------------|
|-3---3---5---5---|-7---7---8-------|-----3-0---------|-3-0---------0---|
|---4-------5-----|---7-------------|-----------------|-----2---0-----5*|
|-----------------|-----------------|-----------------|-------4--------*|
|-----------------|-----------------|-----------------|-----------------|
|-----------------|-----------------|-----------------|-----------------|

_2________________
| D       G
32|   |   |   |   
|-----------------|
|-3-0-------------|
|-----2---0-------|
|-------4-----2-4-|
|-----------------|
|-----------------|

Ending
  N/C        
33|   |   |   |  34 |   |   |   |    
|-----------------|-----------------|
|-----------------|-----------------|
|-0-4-2-0-----0---|-----------------|
|---------2-4---2-|-0---------------|
|-----------------|---2-0-----------|
|-----------------|-------2-3-------|


Enjoy


-Bo Parker

"All the boys go, 'Hey Goo, what's new?'"
"And my friend Goo just goes, 'Peeee Yeeew!'"
"And my friend Goo just goes, 'Peeee Yeeew!'"
            
Submit corrections

comments powered by Disqus
↑ Back to top | Misc Country Tabs for Bill Cheatham. Lyrics for acoustic guitar and electric guitar. Tablatures and chords are parodies/interpretations of the original songs. You may use it for private study, scholarship, research or language learning purposes only