» » »

Misc Computer Games, Zelda Labrynth Tabs (ver.1)

Artists:  A B C D E F G H I J K L M N O P Q R S T U V W X Y Z # 

Zelda Labrynth Tabs (ver.1)

Misc Computer Games Tabs
 Rating:
4/5 (4 votes)
Zelda Labrynth lessons Tabs too difficult? Try these video lessons and learn fast
                Tempo: 180

Notes: Each note played by the lead (guitar 2) should be sustained until
the next

** = Repeat from beginning
Guitar 1: Standard Tuning
E :----------------|----------------|----------------|----------------|
B :----3-4-----3-4-|----3-4-----3-4-|----3-4-----3-4-|----3-4-----3-4-|
G :--3-------3-----|--3-------3-----|--2-------2-----|--2-------2-----|
D :5-------5-------|5-------5-------|4-------4-------|4-------4-------|
A :----------------|----------------|----------------|----------------|
E :----------------|----------------|----------------|----------------|
Guitar 2: Standard Tuning
E :----------------|----------------|----------------|----------------|
B :----------------|----------------|----------------|----------------|
G :----------------|----------------|----------------|----------------|
D :----------------|--------0-------|----------------|----------------|
A :----------------|1---------------|4---------------|----------------|
E :3---------------|----------------|--------2-------|----------------|



E :----------------|----------------|----------------|----------------|
B :----3-4-----3-4-|----3-4-----3-4-|----3-4-----3-4-|----3-4-----3-4-|
G :--1-------1-----|--1-------1-----|--0-------0-----|--0-------0-----|
D :3-------3-------|3-------3-------|2-------2-------|2-------2-------|
A :----------------|----------------|----------------|----------------|
E :----------------|----------------|----------------|----------------|

E :----------------|----------------|----------------|----------------|
B :----------------|----------------|----------------|----------------|
G :----------------|----------------|----------------|----------------|
D :----------------|----------------|----------------|----------------|
A :----------------|------------4---|3---------------|----------------|
E :1---------------|1-----4---------|--------0-------|----------------|


E :----------------|----------------|----------------|----------------|
B :----1-3-----1-3-|----1-3-----1-3-|----1-3-----1-3-|----1-3-----1-3-|
G :--0-------0-----|--0-------0-----|--0-------0-----|--0-------0-----|
D :1-------1-------|1-------1-------|0-------0-------|0-------0-------|
A :----------------|----------------|----------------|----------------|
E :----------------|----------------|----------------|----------------|

E :----------------|----------------|----------------|----------------|
B :----------------|----------------|----------------|----------------|
G :----------------|----------------|----------------|----------------|
D :1-0-1-----------|------1-----0---|----------------|------0---------|
A :----------------|----------------|5-4-5-----------|------------4---|
E :----------------|3---------------|----------------|3---------------|


                                             **
E :----------------|----------2---2-|5-2-5-8-||
B :------1-----1-4-|--1-4-1-4---4---|--------||
G :----2-----2-----|2---------------|--------||
D :--4-----4-------|----------------|--------||
A :3---------------|----------------|--------||
E :----------------|----------------|--------||
                                             **
E :----------------|----------------|--------||
B :----------------|----------------|--------||
G :----------------|--------2-------|--------||
D :0---------------|1---1-4---4-1---|1-------||
A :----0---0-3-0-3-|--3-----------3-|--3-0---||
E :--2---2---------|----------------|------2-||
            
Submit corrections

comments powered by Disqus
↑ Back to top | Misc Computer Games Tabs for Zelda Labrynth. Lyrics for acoustic guitar and electric guitar. Tablatures and chords are parodies/interpretations of the original songs. You may use it for private study, scholarship, research or language learning purposes only