» » »

Wild Arms Tabs (ver.1)

Artists:  A B C D E F G H I J K L M N O P Q R S T U V W X Y Z # 

Wild Arms Tabs (ver.1)

Misc Computer Games
Rating:
0/5 (0 votes)

Hard to play? Try these video lessons and learn fast.
                (Theme)
wild arms intro
for all you who've played wild arms im sure you didnt like the game that much.
but the music is pretty good.

|---------8----|---------8----|---------8-------------|-8----
|--------------|--------------|-----------------------|------
|--------------|--------------|-----------------------|-9----
|-0---7--------|-----7--------|-0---7-------0---------|------
|--------------|--------------|-----------------------|------
|--------------|-8------------|------------------8----|------
                                                                              

|---------------------0-------------1-------------0------ 
|---------3----------1---1---------3---3---------1---1---
|-------3---3-------0-------------2-------------0--------
|-----3------------------------0-------------------------
|--1-------------3---------------------------3-----------
|--------------------------------------------------------
                                                                              

|--------------|--------0-----|--------1-----|-1----|-------
|--------3-----|------1---1---|------3---3---|-3----|-------
|------3---3---|----0---------|----2---------|-2----|-------
|----3---------|--------------|-0------------|-0----|-------
|-1------------|-3------------|--------------|------|-------
|--------------|--------------|--------------|------|-------

-|-----1-----1---|-----0-----0---|-----1-----1----|-----
-|-----3-----3---|-----1-----1---|-----3-----3----|-----
-|-0-2-----------|---------------|-0-2------------|-----
-|--------0------|-0-2-----------|--------0-------|-----
-|---------------|--------3------|----------------|-----
-|---------------|---------------|----------------|-----
                                  2xplay                    

-|-----1-----1---|-----3-----3---|-----5-----5----|-----
-|-----3-----3---|---------------|----------------|-----
-|-0-2-----------|-----4-----4---|-----6-----6----|-----
-|--------0------|-5------0------|----------------|-----
-|---------------|---------------|-0--------------|-----
-|---------------|---------------|--------0-------|-----
                                  2xplay

-|-----1-----1---|-----0-----0---|----------------|-----0-----0---
-|-----3-----3---|-----1-----1---|-----3-----3----|-----1-----1---
-|-0-2-----------|---------------|-----3-----3----|---------------
-|--------0------|-0-2-----------|----------------|--------2------
-|---------------|--------3------|-1--------------|-0-------------
-|---------------|---------------|--------1-------|---------------
                    *    2x            both    *

-|---------------|---------------|-----1-----1---|-----1---|----------
-|----3-----3----|-3-------------|-----3-----3---|-----3---|----------
-|----3-----3----|-3-------------|-0-2-----------|-0-2-----|----------
-|---------------|---------------|--------0------|---------|----------
-|-1-------------|-1-------------|---------------|---------|----------
-|-------1-------|---------------|---------------|---------|----------
                                  x3play                          

-|-------0--1-----5--3----0----------|-------0--1----3--0-------------
-|----3----------------------1--3----|----3------------------1--------
-|-2---------------------------------|-2------------------------0--2--
-|-----------------------------------|--------------------------------
-|-----------------------------------|--------------------------------
-|-----------------------------------|--------------------------------
                                                                              

-|-------------------------------------------
-|-------------10-----13--12----10--8--10----
-|-----10--12--------------------------------
-|-10----------------------------------------
-|-------------------------------------------
-|-------------------------------------------

-|------10--12--13---10-----12-
-|---10------------------10----
-|-----------------------------
-|-----------------------------
-|-----------------------------
-|-----------------------------                                            


-|-10--8--10-----------------|----------------------|-----------------
-|------------10-------13----|-------------8--------|-----------------
-|-----------------10--------|-7--9--10--------7----|-----------------
-|---------------------------|----------------------|-----------------
-|---------------------------|----------------------|-----------------
-|---------------------------|----------------------|-----------------
                                                                              

-|-----1-----1---|-----1-----1---|-----1-----1---|-1----|----
-|-----3-----3---|-----3-----3---|-----3-----3---|-3----|----
-|-0-2-----------|-0-2-----------|-0-2-----------|-2----|----
-|--------0------|--------0------|--------0------|-0----|----
-|---------------|---------------|---------------|------|----
-|---------------|---------------|---------------|------|----
            
Hard to play? Try these video lessons and learn fast. | Correct




comments powered by Disqus
↑ Back to top | Tablatures and chords are parodies/interpretations of the original songs. You may use it for private study, scholarship, research or language learning purposes only