>
 >
Metroid Theme

Metroid Theme Guitar Tabs

Misc Computer Games - Metroid Theme chords, tabs, tablatures, lyrics

Guitar lessons | Add/correct | Request | Top 50 tabs Artists:  A B C D E F G H I J K L M N O P Q R S T U V W X Y Z 0-9

Metroid Theme Guitar Tabs – Misc Computer Games

CD, Sheet music, Poster

Do you like Metroid Theme? Share with your friends now
Tabs
Metroid 8-Bit
Opening Theme
NES


Notation:
~ = Vibrate note
( ) = Bass / Guitar 2
 = Hold Note
H. = Harmonic
* = Let Ring


Drop-D Tuning

								 
e---------------------18-18-18-18-18~---------------------------|_
b-15-15-15-15-15~-------------------------18-18-18-18-18~-------| |
g---------------------------------------------------------------| |
d-H.------------------H.------------------H.--------------------| |
a(12>>>>>>>>>>>>>>>)-(12>>>>>>>>>>>>>>>)-(12>>>>>>>>>>>>>>>)----| |
d(0>>>>>>>>>>>>>>--)-(0>>>>>>>>>>>>>>--)-(0>>>>>>>>>>>>>>--)----| | 
								  |-x2
e---------------------20-20-20-20-20~-----18-18-18-18-18~-------| |
b-15-15-15-15-15~-----------------------------------------------| | 
g---------------------------------------------------------------| |
d-H.------------------H.------------------H.--------------------| | 
a(12>>>>>>>>>>>>>>>)-(12>>>>>>>>>>>>>>>)-(12>>>>>>>>>>>>>>>)----|_|
d(0>>>>>>>>>>>>>>--)-(0>>>>>>>>>>>>>>--)-(0>>>>>>>>>>>>>>--)----|

e-17----15----14----12---15----14----12---10--------------------|_ 
b---------------------------------------------------------------| |
g----14----12----11----9----12----11----9----7------------------| |
d(------------10~--------9~----------8~-)-----------------------| |
a(5~------------------------------------)-----------------------| |
d---------------------------------------------------------------| |
								  |-x2
e-17----15----14----12---15----14----12---10--------------------| |
b---------------------------------------------------------------| |
g----14----12----11----9----12----11----9----7------------------| |
d(------------10~--------8~----------5~-)-----------------------| |
a(9~------------------------------------)-----------------------|_|
d---------------------------------------------------------------|

i dont know if the bass is exactly in the right spot
e-2---------0-2-3-5~----3-2-3---2-------5-10~--6--5--3--2-----2-|
b-------0-3-----------------------5-3----------------------5----|
g---0-2---------------------------------------------------------|
d-4-------------------------------------------------------------|
a(--------3~------2~---------1~-------------3~-1~---------------|
d(0~--------------------------------4~---------------5~----0~---|

e-5~---10-----2--------------0----------------------------------|
b---------5-----3~-----0--3-----3-------------------------------|
g-------------------2--------------3-0--------------------------|
d---------------------------------------------------------------|
a-3~------2~----1~--------3~----1~------)-----------------------|
d-------------------4~---------------5~-)-----------------------|

this is actually played on the higher octave but it can be done 
either way

haven't figured the bass out for tihs part yet
e---5----3----1----0----5----3----1----0----5----3----1----3----|
b---------------------------------------------------------------|
g-2----2----2----2----2----2----2----2----3----3----3----3----3-|
d---------------------------------------------------------------|
a---------------------------------------------------------------|
d---------------------------------------------------------------|


*let ring ***************************************
e-5-0---5-0---5-0---5-0---4-0---4-0---4-0---4-0-----------------|
b-----0-----0-----0-----0-----0-----0-----0-----0---------------|
g---------------------------------------------------------------|
d---------------------------------------------------------------|
a---------------------------------------------------------------|
d---------------------------------------------------------------|
_________________________higher octave___________________________

e---17---15---13---12---17---15---13---12---17---15---13---15---|
b---------------------------------------------------------------|
g-14---14---14---14---14---14---14---14---15---15---15---15---15|
d---------------------------------------------------------------|
a---------------------------------------------------------------|
d---------------------------------------------------------------|

*let ring ******************************************************
e-17-12---17-12---17-12---17-12---16-12---16-12---16-12--16-12--|
b------12------12------12------12------12------12------12-----12|
g---------------------------------------------------------------|
d---------------------------------------------------------------|
a---------------------------------------------------------------|
d---------------------------------------------------------------|

i know it is kind of messy looking but its a pretty complicated song 
but this is my first tab for one of the best game-themes i have ever 

(I made this cause no one else has posted a tab for it yet as far as i know)





Comments


Popular Misc Computer Games tabs & chords
Donkey Kong Theme Bass Tabs
Advance Wars - Jakes Theme Tabs
Backyard Basketball Theme Tabs
Banjo Kazooie - Gobis Valley Tabs
Cosmo Canyon Theme Intro 1 Tabs
Crash Bandicoot 2 - Dr Neo Cortex Tabs
Earthbound - The Final Battle Tabs
Final Fantasy 7 - Holding My Thoughts In My Heart Tabs
Sonic Adventure 2 - Escape From The City Tabs
Bioshock Infinite - Will The Circle Be Unbroken From Ukulele


Song lyrics



↑ Back to top | Tablatures and chords are parodies/interpretations of the original songs. You may use it for private study, scholarship, research or language learning purposes only
© 2014 AZChords.com Contact us | Privacy policy | DMCA | Add/correct tabs | Request tabs | Top 50 tabs