>
 >
Halo 2 Theme

Halo 2 Theme Guitar Tabs

Misc Computer Games - Halo 2 Theme chords, tabs, tablatures, lyrics

Guitar lessons | Add/correct | Request | Top 50 tabs Artists:  A B C D E F G H I J K L M N O P Q R S T U V W X Y Z 0-9

Halo 2 Theme Guitar Tabs – Misc Computer Games

CD, Sheet music, Poster

Do you like Halo 2 Theme? Share with your friends now
Tabs

This song is the new HALO 2 theme with a few guitars added to it. I tried to get both
guitars as colse as I can.

(~)Vibrato
(/)slide up
(\)slide down
(h)Hammer on
(p)Pull Off
(b)Bend

Intro (use whammy 2 octaves down for low part)

Guitar2
e|------------------------------------------------------------------|
B|------------------------------------------------------------------|
G|--9~----9h11/12/13--11h12\9h11\7h9--------------------------------|
D|------------------------------------------------------------------|
A|------------------------------------------------------------------|
E|------------------------------------------------------------------|

Guitar1     (Part1)
e|---------|--------------------------------------------------------|
B|---intro-|--------------------------------------------------------|
G|---------|--------------------------------------------------------|X3
D|---------|-------9------11-------12------14-----14\12\11----------|
A|---------|-------7-------9-------10------12-----12\10\9-----------|
E|--3/10\3-|-0-0-0---0-0-0---0-0-0---0-0-0--------------------------|

Guitar2 (start at the Last time of part 1)
e|------------------------------------------------------------------|
B|--17~--19~--20~--22~--22-20-19-17-15------------------------------|
G|------------------------------------------------------------------|
D|------------------------------------------------------------------|
A|------------------------------------------------------------------|
E|------------------------------------------------------------------|

Guitar1 (Part2)
e|------------------------------------------------------------------|
B|------------------------------------------------------------------|
G|-----------------------9-9----------------------------------------|X2
D|----9-9-9---12-12-12---7-7----12-12\11\9--------------------------|
A|----7-7-7---10-10-10---x-x----10-10\9 \7--------------------------|
E|--0---------9--9--9----8-8--0-------------------------------------|

Guitar2 (Play during part 2)
e|------------------------------------------------------------------|
B|--17-15-17--17p15-12--------------------15-17---------------------|
G|---------------------b14----b14-14p12-----------------------------|
D|-------------------------------------14---------------------------|
A|------------------------------------------------------------------|
E|------------------------------------------------------------------|

Guitar1 (Part1)
e|------------------------------------------------------------------|
B|------------------------------------------------------------------|
G|------------------------------------------------------------------|
D|--------9------11-------12------14-----14\12\11-------------------|
A|--------7-------9-------10------12-----12\10\9--------------------|
E|--0-0-0---0-0-0---0-0-0---0-0-0-----------------------------------|

Guitar2 (Play during part 1)
e|------------------------------------------9-----------------------|
B|--12---12-13-14---12-15-14-12-10----10-12---12-10-----------------|
G|---------------------------------9----------------9---------------|
D-------------------------------------------------------------------|
A|------------------------------------------------------------------|
E|------------------------------------------------------------------|

e|--------------------12-----------------12-------------------------|
B|--12---12-13-b15-------15-14-15-14-12-----15-14-15-14-12----------|
G|------------------------------------------------------------------|
D-------------------------------------------------------------------|
A|------------------------------------------------------------------|
E|------------------------------------------------------------------|

Guitar1 (Part 3)
e|------------------------------------------------------------------|
B|------------------------------------------------------------------|
G|------------------------------------------------------------------|X3
D|--------9--11--------12--14---------------------------------------|
A|--------7--9---------10--12---------------------------------------|
E|--0-0-0--------0-0-0----------------------------------------------|

Guitar2 (Play during part 3)
e|--14------17--17-17---14------17---12-14-15/17-19-----------------|
B|----15------------------15----------------------------------------|
G|------16------------------16--------------------------------------|
D-------------------------------------------------------------------|
A|------------------------------------------------------------------|
E|------------------------------------------------------------------|

e|------------------------------------------------------------------|
B|--15--17--19--17-19-20-19-17-19-17-15--14--15--17--24~------------|
G|------------------------------------------------------------------|
D|------------------------------------------------------------------|
A|------------------------------------------------------------------|
E|------------------------------------------------------------------|

e|--21-19-17-15---15-14-15-17-15-14---------------------------------|
B|------------------------------------------------------------------|
G|------------------------------------------------------------------|
D|------------------------------------------------------------------|
A|------------------------------------------------------------------|
E|------------------------------------------------------------------|

Guitar2 (alone)
e|----15---15---15---15---15---15---15---15---15-17-18-20-18-17-----|
B|--18--------18-------18-------18----------------------------------|
G|------17--------17--------17--------17----18----------------------|
D|------------------------------------------------------------------|
A|------------------------------------------------------------------|
E|------------------------------------------------------------------|

e|----17---17---17---17---17---17---17---17---17-15-14-15-14--------|
B|--20--------20-------20---------20--------------------------17----|
G|------19--------19--------19--------19----19----------------------|
D|------------------------------------------------------------------|
A|------------------------------------------------------------------|
E|------------------------------------------------------------------|

Guitar1 (Part2)
e|------------------------------------------------------------------|
B|------------------------------------------------------------------|
G|-----------------------9-9-9--------------------------------------|X2
D|----9-9-9---12-12-12---7-7-7---12-12\11\9-------------------------|
A|----7-7-7---10-10-10---x-x-x---10-10\9 \7-------------------------|
E|--0---------9--9--9----8-8-8-0------------------------------------|

Guitar1 (part 1)
e|------------------------------------------------------------------|
B|------------------------------------------------------------------|
G|------------------------------------------------------------------|
D|--------9------11-------12------14-----14\12\11-------------------|
A|--------7-------9-------10------12-----12\10\9--------------------|
E|--0-0-0---0-0-0---0-0-0---0-0-0-----------------------------------|

Guitar2 (alone)
e|----15---15---15---15---15---15---15---15---15-17-18-20-18-17-----|
B|--18--------18-------18-------18----------------------------------|
G|------17--------17--------17--------17----18----------------------|
D|------------------------------------------------------------------|
A|------------------------------------------------------------------|
E|------------------------------------------------------------------|

e|----17---17---17---17---17---17---17---17---17-15-14-15-14--------|
B|--20--------20-------20---------20--------------------------17----|
G|------19--------19--------19--------19----19----------------------|
D|------------------------------------------------------------------|
A|------------------------------------------------------------------|
E|------------------------------------------------------------------|

Guitar2 (Play during part 1)
e|------------------------------------------------------------------|
B|------------------------------------------------------------------|
G|--b14-b14-b14-b14-14p12-------------------------------------------|
D|-----------------------14--16--17--19---19-17-16-17-16-14---------|
A|------------------------------------------------------------------|
E|------------------------------------------------------------------|

Guitar2 (Play during part 2)
e|------------------------15------------------------12--------------|
B|-----b15--17-17-17-19------19-17-15-17--b18--15-12--b15-----------|
G|------------------------------------------------------------------|
D|--14--------------------------------------------------------------|
A|------------------------------------------------------------------|
E|------------------------------------------------------------------|

Guitar1 (Part 1)
Guitar1 (Part 3)X3

Guitar2 (alone)
e|------------------------b17-17------------------------------------|
B|------------------------------------------------------------------|
G|--12~-14~-16~-18~-19~---------------------------------------------|
D|-------------------------------------9~---------------------------|
A|--------------------------------5h7~------------------------------|
E|------------------------------------------------------------------|

Guitar2 (Play during part 2)
e|------------------------------------------------------------------|
B|-------12-12------------------------------------------------------|
G|--b14~-------b14~-------------------------------------------------|
D|------------------------------------------------------------------|
A|------------------------------------------------------------------|
E|------------------------------------------------------------------|

Guitar2 (Play during part 2)
e|------------------------------------------------------------------|
B|--b15-15p12---b18-18p15---b20-20p17-----b20-20-19-----------------|
G|------------------------------------------------------------------|
D|-----------14----------17----------19-----------------------------|
A|------------------------------------------------------------------|
E|------------------------------------------------------------------|

Guitar2 (Play during part 1)
e|------------------------------------------------------------------|
B|--b12-------------------b12---------------------------------------|
G|----------14p12--12---------14p12---------------------------------|
D|---------------14--14-------------12-14---------------------------|
A|------------------------------------------------------------------|
E|------------------------------------------------------------------|

Guitar2 (alone)
e|------------------------------------------------------------------|
B|--17~-17-19-20-19-17-17h19-15-12---------12---12---------12-------|
G|--------------------------------b14---b14--b14--14p12-b14---14----|
D|------------------------------------------------------------------|
A|------------------------------------------------------------------|
E|------------------------------------------------------------------|

Guitar2 (Play during part 1)
e|------------------------------------------------------------------|
B|-----------------------17h19b19bbb--20-17--17-----b15p12--12b15---|
G|--14p13-14--14-12------------------------19---b19-------14--------|
D|------------------14-------------------------------------------14~|
A|------------------------------------------------------------------|
E|------------------------------------------------------------------|

End
Enjoy!





Comments


Popular Misc Computer Games tabs & chords
Blazblue - Gale Bangs Theme Tabs
Chrono Cross - Prisoners Of Fate Tabs
Doom Theme Tabs
Dynasty Warriors - Ultimate Pressure Tabs
Final Fantasy 7 - Cosmo Canyon Tabs
Final Fantasy 7 - One Winged Angel Tabs
Legend Of Zelda - Epona Tabs
Super Mario Brothers 4 Levels Theme Tabs
Ultima 6 And 7 Tabs
Animaniacs - Nations Of The World Ukulele


Song lyrics



↑ Back to top | Tablatures and chords are parodies/interpretations of the original songs. You may use it for private study, scholarship, research or language learning purposes only
© 2014 AZChords.com Contact us | Privacy policy | DMCA | Add/correct tabs | Request tabs | Top 50 tabs