>
 >
Final Fantasy 8 - Breezy

Final Fantasy 8 - Breezy Guitar Tabs

Misc Computer Games - Final Fantasy 8 - Breezy chords, tabs, tablatures, lyrics

Guitar lessons | Add/correct | Request | Top 50 tabs Artists:  A B C D E F G H I J K L M N O P Q R S T U V W X Y Z 0-9

Final Fantasy 8 - Breezy Guitar Tabs – Misc Computer Games

CD, Sheet music, Poster

Do you like Final Fantasy 8 - Breezy? Share with your friends now
Tabs

I suggest finger picking for this song, because there are a lot of distant strings
picked at the same time in it.

E|-------2-------2-------2-------2-------0-------0-------3-------3-|
B|-----0-----0---------0-----0---------0-----0---------0-----0-----|
G|---2---------2-----2---------2-----0---------0-----0---------0---|
D|-0---------------0---------------0---------------0---------------|
A|-----------------------------------------------------------------|
E|-----------------------------------------------------------------|

E|-------2-------2-------2-------2-------0-------0-3-----2-----0---|
B|-----0-----0---------0-----0---------0-----0---------3-----3-----|
G|---2---------2-----2---------2-----0---------0-----4-----2---0-3-|
D|-0---------------0---------------0---------------0-----0---------|
A|-----------------------------------------------------------------|
E|-----------------------------------------------------------------|
					
E|-------2-------2-------2h3p2-----2--------0-------0-------3-----3---|
B|-----2-----2---------2-------2----------3-----3-------2-----2-----2-|
G|---2---------2-----2-----------2------0---------0-------4-----4-----|
D|-0---------------0------------------0---------------0---------------|
A|--------------------------------------------------------------------|
E|--------------------------------------------------------------------|

E|-------2-------2-5-----3-----2---3-----2-----3---0-|
B|-----2-----2-------1-------1---1-----0-----0---0-2-|
G|---2---------2-------4---4---------0-----0-------2-|
D|-0---------------0---------------0-----0-----2---2-|
A|---------------------------------------------------|
E|---------------------------------------------------|

E|-2-----2-------2-5-----5-------5-7-----7-------7-5-----5-------5-|
B|---3-------3-------6-------6-------8-------8-------7-------7-----|
G|-----2-------2-------5-------5-------7-------7-------7-------7---|
D|-0---------------0---------------0---------------0---------------|
A|-----------------------------------------------------------------|
E|-----------------------------------------------------------------|

E|-2-----2-------2-5-----5-------5-7-----7-------7-5--[2]------------|
B|---3-------3-------6-------6-------8-------8-------------[3]-------|
G|-----2-------2-------5-------5-------7-------7----------------[2]--|
D|-0---------------0---------------0---------------0-----------------|
A|-------------------------------------------------------------------|
E|-------------------------------------------------------------------|

E|-------3-------3-5-----3-------3-------3-------3-5-----3---------|
B|-----3-----3-------3-------3---------3-----3-------3-------3---3-|
G|---4---------4-------4-------4-----3---------3-------3-------3---|
D|-0---------------0---------------0---------------0---------------|
A|-----------------------------------------------------------------|
E|-----------------------------------------------------------------|

E|-------2-------2-------2-------2-------0----------3-|
B|-----0-------0-------0-------0-------3-----3---3--3-|
G|---2-------2-------2-------2-------4---------4----3-|repeat
D|-0-------------------------------0----------------0-|
A|----------------------------------------------------|
E|----------------------------------------------------|

Legend:
h    - hammer on
p    - pull off
[0]  - artificial harmonics





Comments


Popular Misc Computer Games tabs & chords
Battletoads Double Dragon - Level 2 Bass Tabs
Chrono Trigger - Secret Of The Forest Bass Tabs
Conkers Bad Fur Day - Poo Intro Bass Tabs
Castlevania - Vampire Killer Tabs
Doom - Hanger Tabs
Doom - Military Basee Tabs
F-Zero Gx - Big Blue Tabs
Final Fantasy - Prelude Tabs
Final Fantasy 7 - One Winged Angel Tabs
Resident Evil 3 Nemesis Tabs


Song lyrics



↑ Back to top | Tablatures and chords are parodies/interpretations of the original songs. You may use it for private study, scholarship, research or language learning purposes only
© 2014 AZChords.com Contact us | Privacy policy | DMCA | Add/correct tabs | Request tabs | Top 50 tabs