» » »

Misc Computer Games, Final Fantasy 7 - Boss Battle Tabs (ver.1)

Artists:  A B C D E F G H I J K L M N O P Q R S T U V W X Y Z # 

Final Fantasy 7 - Boss Battle Tabs (ver.1)

Misc Computer Games Tabs
Rating:
0/5 (0 votes)
Final Fantasy 7 - Boss Battle lessons Tabs too difficult? Try these video lessons and learn fast
                (Theme)
Alrite, no one was gunna tab the whole thing, and I was gettin kinda
p**sed cuz its an awesome song. Well here it is, I even got the little
solo thing, even though its not really guitar. If the palm muting’s too
fast for you, try up and downstrokes. Hey I herd theyre making a remake
of FF7 for ps2. Thatll be kik ass. Email me if u no sumthin about it.

Intro & Chorus
e-------------------------------------------------------------
b-------------------------------------------------------------
g-------------------------------------------------------------
d-------------------------------------------------------------
a---0-0-0-3----0-0-0-5---0-0-0-6-5-3—5-3-2--3-2---------------  x2
e-------------------------------------------------------------
(pm on open string)

e-------------------------------------------------------------
b-------------------------------------------------------------
g-------------------------------------------------------------
d-----------1-----------3-------------------------------------
a---3-3-3------3-3-3----3-3-3-4-3-1—3-1-0—1-0----------------- x2
e-------------------------------------------------------------
(p.m. on the 3’s on the A string)

(Repeat intro 1x)

Bridge
e-------------------------------------------------------------
b-------------------------------------------------------------
g---2---4---5---7—3*--------2---------------------------------
d---2---4---3---7—1*---2---2----------------------------------
a---0---2---3---5—1*---2---0---------------------------------- x2
e----------------------------0--------------------------------
*let ring

Verse
e-------------------------------------------------------------
b-------------------------------------------------------------
g------------------2-2---------------------2-2----------------
d------------------2-2---------------------2-2----------------
a--0-0-0-0-0-0-0-0-----0-0-0-0-0-0-0-0------------------------ x4
e-------------------------------------------------------------
p.m………(except on chords)………………….


e-------------------------------------------------------------
b-------------------------------------------------------------
g---------2---4---5------------2----4---6---7-----------------
d----5---2---4---5------------2----4---6---7------------------
a----5---0---2---3------------0----2---4---5------------------
e---3---------------------------------------------------------

Solo

e----------------------------------------------------------------------------
b---------------10—8h10\11/10------------------------------------------------
g-------------------------------------10h12—10p9/7--7---5h7---5h7/9/7--------
d---12pm12-------------------------------------------------------------------
a----------------------------------------------------------------------------
e----------------------------------------------------------------------------

e----------------------------------------------------------------------------
b----------------------------------------------------------------------------
g------------9---7h9/10/9----------------------------------------------------
d---7pm7-------------------10h12---10p9/7----7—5h7---5h7/9/7----------------- x3
a----------------------------------------------------------------------------
e----------------------------------------------------------------------------

e-----------------------------------------------
b-----------------------------------------------
g---2---4---5---6-------------------------------
d---2---4---5---6-------------------------------
a---0---2---3---4-------------------------------
e-----------------------------------------------
b-----------------------------------------------

(Repeat everything)

Well that’s it, It should be 100% rite, but it works for me,
so if u don’t like it, make up ur own. Other than that, awesome
            

comments powered by Disqus
↑ Back to top | Misc Computer Games Tabs for Final Fantasy 7 - Boss Battle. Lyrics for acoustic guitar and electric guitar. Tablatures and chords are parodies/interpretations of the original songs. You may use it for private study, scholarship, research or language learning purposes only