» » »

Final Fantasy 6 - Cyans Tabs (ver.2)

Artists:  A B C D E F G H I J K L M N O P Q R S T U V W X Y Z # 

Final Fantasy 6 - Cyans Tabs (ver.2)

Misc Computer Games
Rating:
0/5 (0 votes)

Tabs too difficult? Try these video lessons and learn fast.
                E|--3-8-7---6-1-3---3-8-10-7---6-3-1-3-|
B|-------------------------------------|
G|-------------------------------------|
D|-------------------------------------|
A|-------------------------------------|
e|-------------------------------------|

E|-3-8-7---6-3-1-4-3---------1-----------|
B|---------------------1-3-5-----5-3---1-|
G|-----------------------------------2---|
D|---------------------------------------|
A|---------------------------------------|
e|---------------------------------------|

E|-7-6-1-4-3---7-6-8-5-3-|
B|-----------------------|
G|-----------------------|
D|-----------------------|
A|-----------------------|
e|-----------------------|


Repear as many times as needed
            
Tabs too difficult? Try these video lessons and learn fast.




comments powered by Disqus
↑ Back to top | Tablatures and chords are parodies/interpretations of the original songs. You may use it for private study, scholarship, research or language learning purposes only