>
 >
Final Fantasy 2 Theme

Final Fantasy 2 Theme Guitar Tabs

Misc Computer Games - Final Fantasy 2 Theme chords, tabs, tablatures, lyrics

Guitar lessons | Add/correct | Request | Top 50 tabs Artists:  A B C D E F G H I J K L M N O P Q R S T U V W X Y Z 0-9

Final Fantasy 2 Theme Guitar Tabs – Misc Computer Games

CD, Sheet music, Poster

Do you like Final Fantasy 2 Theme? Share with your friends now
Tabs
Final Fantasy 2 Theme Music

        Well, I have recived tons of email requesting more and more Final
Fantasy music.  So I decided to do my favorite piece from the games.
I couldn't really do just a single guitar part, so have fun learning this
with a friend.  Or maybe even record yourself onto a mixer.  I may upload
how I originally did it to my webstie eventually.  I don't know yet.  I
have a bass part figured out too, if anyones intrested lemme' know.

        This is a really neat piece to just mess around with your guitar
and effects rack.  Try doing the melody line with maybe a flanger and a wah
as filters.... lots of presence...  Who knows.  Maybe even a midi guitar
setup would be nice.  I'd be great to play with some strings added.  Oh
Well,  enjoy this tab in my series...

                   ---- Final Fantasy 2 Theme Music ----
  
    Guitar 1: String Ensemble Part
e|----------------(triplet)-|------------------------|-------------------|
b|-----------------|#3#|----|------------------------|-------------------|
g|---10---10--10---101010---|-10----10---10----10----|-----------|#3#|---|
d|---10---10--10---101010---|-10----10---10----10----|-10-10-10-101010---|
a|----8----8---8----8-8-8---|--8-----8----8-----8----|--6--6--6--6-6-6---|
e|---(6)--------------------|------------------------|--8--8--8--8-8-8---|
 |    |= Hold this for all bass changes.                                 |
 |  Guitar 2: Melody, Trumpet I belive.                                  |
e|--------------------------|------------------------|-------------------|
b|--------------------------|------------------------|-------------------|
g|--------------------------|--------------3-----3---|--5----------------|
d|--------------------------|------------3----3------|-------------------|
a|--------------------------|------------------------|-------------------|
e|--------------------------|------------------------|-------------------|

e|--------------------------|------------------------|-------------------|
b|--------------------------|--------------|#3#|-----|-------------------|
g|--------------------------|--3---3---3---3-3-3-----|--3--3--3---3------|
d|--10---10---10----10------|--3---3---3---3-3-3-----|--3--3--3---3------|
a|---6----6----6-----6------|--1---1---1---1-1-1-----|--1--1--1---1------|
e|---8----8----8-----8------|--1---1---1---1-1-1-----|--1--1--1---1------|
 |
e|--------------------------|------------------------|-------------------|
b|-------------------1----1-|--4---------------------|----------1--5-1-5-|
g|----------------1-----1---|------------------------|-------------------|
d|--------------------------|------------------------|-------------------|
a|--------------------------|------------------------|-------------------|
e|--------------------------|------------------------|-------------------|

e|----------------|##3##|---|------------------------|
b|---1----1---1---1--1--1---|--1----1---1---1--------|
g|---2----2---2---2--2--2---|--2----2---2---2--------|
d|---3----3---3---3--3--3---|--1----1---1---1--------|
a|--------------------------|------------------------|
e|--------------------------|------------------------|
 |
e|--1-----------------------|------------------------|
b|--------------------------|------------------------|
g|--------------------------|------------------------|
d|--------------------------|------------------------|
a|--------------------------|------------------------|
e|--------------------------|------------------------|



        Main Theme.  This I comebine a melody guitar and a counter parting
classical accompiment.
e|---------------------|-----------------|--------------------------------|
b|---------------------|---4-----3---1---|--------------------------------|
g|--------3---5--------|-----------------|--3-------2---3-----5------3----|
d|----3------------3---|-----------------|--------------------------------|
a|---------------------|-----------------|--------------------------------|
e|---------------------|-----------------|--------------------------------|
 |    Bb               |   Eb    F       |   Eb     Cm        ?           |
e|---------------------|-----------------|--------------------------------|
b|---------------------|-----------------|--------------------------------|
g|----3-------3---(3)--|---0-----2-------|--------------------------------|
d|----3-------3---(3)--|---1-----3-------|---1------1---------2-----5-----|
a|----1-------1----3---|---1-----3-------|---1------3---------1-----------|
e|---------------------|-----------------|--------------------------------|

e|------------------------------|------------------|--1------------------|
b|------------------------------|-------1----3-----|---------4---3-------|
g|---3-----------------2--------|---0------------0-|---------------------|
d|------------------------------|------------------|---------------------|
a|------------------------------|------------------|---------------------|
e|------------------------------|------------------|---------------------|
 |                              |            Bb    |                     |
e|------------------------------|------------------|---------------------|
b|------------------------------|------------------|---------------------|
g|------------------------------|------------------|--0------0-----------|
d|---5-----------------5-----3--|---1--------3-----|--1------3-----------|
a|---3-----------1-----x-----x--|---3--------1-----|--3------1-----------|
e|---1-------3---------3-----1--|------------------|---------------------|

e|---------------------------|------------------------|-------------------
b|---1-----0--3-----1--------|--3-----------1---------|-------------------
g|------------------------0--|------------------------|-------------------
d|---------------------------|------------------------|-------------------
a|---------------------------|------------------------|-------------------
e|---------------------------|------------------------|-------------------
 |   Cm                      |  F                     |
e|---------------------------|------------------------|-------------------
b|---------------------------|------------------------|-------------------
g|---0-----------------------|------------------------|-------------------
d|---1-----3--------2--------|--4---------------------|-------------------
a|---3-----5--------3-----1--|--0------------0--1--3--|------------------
e|---------------------------|---------1--3-----------|-------------------

e|---------------------|-----------------|--------------------------------|
b|---------------------|---4-----3---1---|--------------------------------|
g|--------3---5--------|-----------------|--3-------2---3-----5------3----|
d|----3------------3---|-----------------|--------------------------------|
a|---------------------|-----------------|--------------------------------|
e|---------------------|-----------------|--------------------------------|
 |    Bb               |   Eb    F       |   Eb     Cm        ?           |
e|---------------------|-----------------|--------------------------------|
b|---------------------|-----------------|--------------------------------|
g|----3-------3---(3)--|---0-----2-------|--------------------------------|
d|----3-------3---(3)--|---1-----3-------|---1------1---------2-----5-----|
a|----1-------1----3---|---1-----3-------|---1------3---------1-----------|
e|---------------------|-----------------|--------------------------------|

e|------------------------------|------------------|--1------------------|
b|------------------------------|-------1----3-----|---------4---3-------|
g|---3-----------------2--------|---0------------0-|---------------------|
d|------------------------------|------------------|---------------------|
a|------------------------------|------------------|---------------------|
e|------------------------------|------------------|---------------------|
 |                              |            Bb    |                     |
e|------------------------------|------------------|---------------------|
b|------------------------------|------------------|---------------------|
g|------------------------------|------------------|--0------0-----------|
d|---5-----------------5-----3--|---1--------3-----|--1------3-----------|
a|---3-----------1-----x-----x--|---3--------1-----|--3------1-----------|
e|---1-------3---------3-----1--|------------------|---------------------|

e|---------------------------|------------------------|--------------1---|
b|---1-----0--3-----1--------|--3-----------1---------|--1--3--4---------|
g|------------------------0--|------------------------|------------------|
d|---------------------------|------------------------|------------------|
a|---------------------------|------------------------|------------------|
e|---------------------------|------------------------|------------------|
 |   Cm                      |  F                     |                  |
e|---------------------------|------------------------|------------------|
b|---------------------------|------------------------|------------------|
g|---0-----------------------|------------------------|------------------|
d|---1-----3--------2--------|--4---------------------|------------------|
a|---3-----5--------3-----1--|--0------------0--1-----|--3---------------|
e|---------------------------|--------1--3------------|------------------|

e|----3------------3---|--1----------------|-----------------------------|
b|---------------------|----------------3--|---4-----4--3----1------0----|
g|---------------------|-------------------|-----------------------------|
d|---------------------|-------------------|-----------------------------|
a|---------------------|-------------------|-----------------------------|
e|---------------------|-------------------|-----------------------------|
 | Some parts sound wrong alone, but two guitars make it correct. ;b     |
e|---------------------|-------------------|-----------------------------|
b|---------------------|-------------------|-----------------------------|
g|---------------------|-------------------|-----------------1------0----|
d|----1---1--0--1--3--5|---8------------8--|---10-----6------0------3----|
a|---------------------|---8-----8------8--|----6-----3-------------1----|
e|---------------------|---6------------6--|----8------------------------|

e|-------------1---|----4-------------4-----|--3-------------------------|
b|---1--3--4-------|------------------------|----------------4-----------|
g|-----------------|------------------------|----------------------------|
d|-----------------|------------------------|----------------------------|
a|-----------------|------------------------|----------------------------|
e|-----------------|------------------------|----------------------------|
 |  Cm             |                        |                            |
e|-----------------|------------------------|----------------------------|
b|-----------------|------------------------|--1-------------------------|
g|---0----(0)------|------------------------|--0-------------------------|
d|---1----(1)------|---3--------------1--3--|--1---------1--3------------|
a|---3-----1-------|---5------1--3-4--------|--3---3--0------------------|
e|-----------------|---4---4----------------|----------------------------|

e|--1----1--2--1------1--2--|--1---------------|
b|--------------------------|------4----3---2--|
g|--------------------------|------------------|
d|--------------------------|------------------|
a|--------------------------|------------------|
e|--------------------------|------------------|
 |                          |                  |
e|--------------------------|------------------|
b|-------------3-------3----|------------------|
g|-------------1-------1----|--5--------2------|
d|--12---------0-------0----|--x----5----------|
a|--11----------------------|--3---------------|
e|--10----------------------|------------------|


e|---------------------|-----------------|--------------------------------|
b|---------------------|---4-----3---1---|--------------------------------|
g|--------3---5--------|-----------------|--3-------2---3-----5------3----|
d|----3------------3---|-----------------|--------------------------------|
a|---------------------|-----------------|--------------------------------|
e|---------------------|-----------------|--------------------------------|
 |    Bb               |   Eb    F       |   Eb     Cm        ?           |
e|---------------------|-----------------|--------------------------------|
b|---------------------|-----------------|--------------------------------|
g|----3-------3---(3)--|---0-----2-------|--------------------------------|
d|----3-------3---(3)--|---1-----3-------|---1------1---------2-----5-----|
a|----1-------1----3---|---1-----3-------|---1------3---------1-----------|
e|---------------------|-----------------|--------------------------------|

e|------------------------------|------------------|--1------------------|
b|------------------------------|-------1----3-----|---------4---3-------|
g|---3-----------------2--------|---0------------0-|---------------------|
d|------------------------------|------------------|---------------------|
a|------------------------------|------------------|---------------------|
e|------------------------------|------------------|---------------------|
 |                              |            Bb    |                     |
e|------------------------------|------------------|---------------------|
b|------------------------------|------------------|---------------------|
g|------------------------------|------------------|--0------0-----------|
d|---5-----------------5-----3--|---1--------3-----|--1------3-----------|
a|---3-----------1-----x-----x--|---3--------1-----|--3------1-----------|
e|---1-------3---------3-----1--|------------------|---------------------|

e|---------------------------|------------------------|--13--------------|
b|---1-----0--3-----1--------|--3-----------1---------|------------------|
g|------------------------0--|------------------------|------------------|
d|---------------------------|------------------------|------------------|
a|---------------------------|------------------------|------------------|
e|---------------------------|------------------------|------------------|
 |   Cm                      |  F                     |                  |
e|---------------------------|--1---------------------|---1--------------|
b|---------------------------|--1---------------------|---1--------------|
g|---0-----------------------|--2---------------------|---2--------------|
d|---1-----3--------2--------|--4---------------------|---4--------------|
a|---3-----5--------3-----1--|--0------------0--1--3--|---0--------------|
e|---------------------------|--1------1--3-----------|---1--------------|



        I'm hopefully going to create a site for my tabs.  Maybe a whole
Nintendo or video game related tabs only site.  Sound cool?  Lemme' know!
Thanks for playing!!!

Sean Connolly





Comments


Popular Misc Computer Games tabs & chords
Age Of Empires 2 Age Of Kings Theme Intro Tabs
Chrono Cross - Magical Dreamers 1 Tabs
Doom 2 - Map 23 - Barrels O Fun Tabs
Doom Theme Intro Tabs
Dynasty Warriors - Dance Macabre Tabs
Dynasty Warriors 5 - Run Run Run Tabs
Dynasty Warriors 5 - Smileless Tabs
Facility Tabs
Final Fantasy X - Cloister Trials Intro Tabs
Street Fighter - Ken Tabs


Song lyrics



↑ Back to top | Tablatures and chords are parodies/interpretations of the original songs. You may use it for private study, scholarship, research or language learning purposes only
© 2014 AZChords.com Contact us | Privacy policy | DMCA | Add/correct tabs | Request tabs | Top 50 tabs