» » »

Misc Computer Games, Farmville Tabs (ver.3)

Artists:  A B C D E F G H I J K L M N O P Q R S T U V W X Y Z # 

Farmville Tabs (ver.3)

Misc Computer Games Tabs
 Rating:
4/5 (4 votes)
Farmville lessons Tabs too difficult? Try these video lessons and learn fast
                (Theme)
Farmville Themesong

this is the lead and bass tab

e-||----------------8----------------------------------------------------------------------------|
B-||-----10----8/10---8/10---10/8-6-8---6---10-----6----6----------------------------------------|
G-||-----10------------------------------7-----5/7----7-7-7--------------------------------------|
D-||---10--10--5/7----0--------------------------------------------------------------------------|
A-||-8------------------------------10---------------8-----8-------------------------------------|
E-||-----------------------8----------------8----------------------------------------------------|

e-||-----------------------------------------|
B-||-------6---8h9p8-------------------------|
G-||-5-6-7--7--------10----------10-----11~--|
D-||-------------------11-10--10-10-10--10~--|
A-||-------------------------8----------12~--|
E-||-----6-----9------------------------10~--|

e-||----------5-----4----10/12-12-10----13/-------8----------------|
B-||------3-6-----6------------------13------8/10------------------|
G-||--4-5----------------------------------------------------------|
D-||---------------------0-----------------------------------------|
A-||------------5-4---3-----------------------------7~--7----------|
E-||----3-------------------------------13/---------------10-10-8--|

e-||--------------------------------------10-8---------|
B-||---------6----8h9p8--------------------------------|
G-||-5-6-7----7---------10-9-10----10-9-8--------------|
D-||-------5-------------------------------------------|
A-||-----------------------------8---------------------|
E-||--------------8------------------------------------|

e-||------8/9-----------8-10---------------------------------------------------------------------|
B-||----------11-8-9-10------10s8-7--8--10-8-----------------------------------------------------|
G-||-----------------------------------------7~--------------------------------------------------|
D-||-------------------------0-------------------------------------------------------------------|
A-||-----------------8---------------10----------------------------------------------------------|
E-||-6-6-/9----------------------------------8~--------------------------------------------------|


thanks! hope you like it!
            
Submit corrections

comments powered by Disqus
↑ Back to top | Misc Computer Games Tabs for Farmville. Lyrics for acoustic guitar and electric guitar. Tablatures and chords are parodies/interpretations of the original songs. You may use it for private study, scholarship, research or language learning purposes only