» » »

Misc Computer Games, Farmville Tabs (ver.1)

Artists:  A B C D E F G H I J K L M N O P Q R S T U V W X Y Z # 

Farmville Tabs (ver.1)

Misc Computer Games Tabs
 Rating:
4/5 (4 votes)
Farmville lessons Tabs too difficult? Try these video lessons and learn fast
                (Theme)
                         Farmville Theme
                          Lead & Chords

Lead:

|---------8--------------------------------------------|
|----8h10-----8h10--------10-8----8---------10---------|
|------------------------------10----10--7------10-10--|
|------------------------------------------------------|
|------------------------------------------------------|
|------------------------------------------------------|

|---------------------------------------5--1--4--------|
|-------6---8h9p8--6----------------3-6----------------|
|-5-6-7---7----------6-5--------3/4--------------------|
|------------------------------------------------------|
|------------------------------------------------------|
|------------------------------------------------------|

|-12-12--10----13--------------------------------------|
|-----------13----10-13-----------6-----8p9h8--6---6---|
|---------------------------5-6-7---7------------7-----|
|------------------------------------------------------|
|------------------------------------------------------|
|------------------------------------------------------|

|--------/10-8------9-----------8-10-------------------|
|---------------------11-8-9-10------8--7--8-10-8---7--|
|-10-9-8-----------------------------------------------|
|------------------------------------------------------|
|------------------------------------------------------|
|------------------------------------------------------|

Rhythm:

F             C/E        Dm7     Dm7/C    G7
|------------------------------------------------------|
|------10----------8----------10---10----------3-------|
|------10----------9----------10---10----------4-------|
|---10----10----10---10----10------10--------3---3-----|
|-8----------------------------------------------------|
|-------------0----------10--------8----2--3-----------|

C7        F        F7       Bb      A7#5/C#  F
|------------------------------------------------------|
|-----5--------1--------6--------3-------6-------------|
|-----3--------2--------8--------3-------6--------1----|
|---5---5----3----3---7---7----3---3---5---5------2----|
|-3-----------------8--------1-------4----------3------|
|----------1----------------------------------1--------|
 
D7      G7              C7
|-2----------------------------------------------------|
|-1----------3--------------5--------------------------|
|-2----------4--------------3--------------------------|
|-0--------3---3-----------5--5------------------------|
|----------------5--4----3------5--7-------------------|
|-----2--3---------------------------------------------|

F             C/E        Dm7     Dm7/C    G7
|------------------------------------------------------|
|------10----------8----------10---10----------3-------|
|------10----------9----------10---10----------4-------|
|---10----10----10---10----10------10--------3---3-----|
|-8----------------------------------------------------|
|-------------0----------10--------8----2--3-----------|

C7        F        F7       Bb      A7#5/C#  F
|------------------------------------------------------|
|-----5--------1--------6--------3-------6-------------|
|-----3--------2--------8--------3-------6--------1----|
|---5---5----3----3---7---7----3---3---5---5------2----|
|-3-----------------8--------1-------4----------3------|
|----------1----------------------------------1--------|

D7      G7      C9
|-2-----------------------------------------------------|
|-1----------3---3--------------------------------------|
|-2----------4---3--------------------------------------|
|-0--------3-----2--------------------------------------|
|----------------3--------------------------------------|
|-----2--3----------------------------------------------|
            
Submit corrections

comments powered by Disqus
↑ Back to top | Misc Computer Games Tabs for Farmville. Lyrics for acoustic guitar and electric guitar. Tablatures and chords are parodies/interpretations of the original songs. You may use it for private study, scholarship, research or language learning purposes only