» » »

Everquest 2 Tabs (ver.2)

Artists:  A B C D E F G H I J K L M N O P Q R S T U V W X Y Z # 

Everquest 2 Tabs (ver.2)

Misc Computer Games
Rating:
0/5 (0 votes)
Tabs too difficult? Try these video lessons and learn fast.
                (Theme)
----------------------------------------------------------------------------             
Jay Barbeau - Everquest Theme
----------------------------------------------------------------------------

Tuning: Standard

e|-----------------|----------------|------------------|-----------------|
B|-----------------|----------------|------------------|-----------------|
G|-----------------|-----5----------|-----5-8--7-5-7---|-7--7-8-5~-------|
D|-5---5-8--7-5-7--|-5-----8--5-7-8-|-5--------------8-|-----------------|
A|---7-----------8-|---7------------|---7--------------|-----------------|
E|-----------------|----------------|------------------|-----------------|


e|-------------6-8-10-|-10----10-13--12-10-12----|-10----15-13-12-10-12-13--|
B|-------6-8-9--------|----12-----------------13-|----12--------------------|
G|-5-7-8--------------|--------------------------|--------------------------|
D|--------------------|--------------------------|--------------------------|
A|--------------------|--------------------------|--------------------------|
E|--------------------|--------------------------|--------------------------|


e|-10----15-18--17-15-17----|-17--18-17-15----------------------------------|
B|----12-----------------18-|-----------------------------------------------|
G|--------------------------|-----------------------------------------------|
D|--------------------------|-----------------------------------------------|
A|--------------------------|-----------------------------------------------|
E|--------------------------|-----------------------------------------------|



This is the main melody before the B section and key change of the song.
Enjoy learning the song :)
            
Tabs too difficult? Try these video lessons and learn fast.


comments powered by Disqus
↑ Back to top | Tablatures and chords are parodies/interpretations of the original songs. You may use it for private study, scholarship, research or language learning purposes only