» » »

Misc Computer Games, Earthbound - Humoresque Of A Little Dog Tabs (ver.1)

Artists:  A B C D E F G H I J K L M N O P Q R S T U V W X Y Z # 

Earthbound - Humoresque Of A Little Dog Tabs (ver.1)

Misc Computer Games Tabs
Rating:
0/5 (0 votes)
Earthbound - Humoresque Of A Little Dog lessons Tabs too difficult? Try these video lessons and learn fast
                -------------------------------------------------------------------------------
                            Humoresque of a Little Dog - Earthbound
-------------------------------------------------------------------------------


Tuning:Standard

Intro
  0:01 - 0:08
e|--5--5--7--5--3--2--3--5--3--0------3-------------|
B|-------------------------------3--3---4--3--1-----|
G|-----------------------------------------------0--|
D|--------------------------------------------------|
A|--------------------------------------------------|
E|--------------------------------------------------|



Main
  0:10 - 0:15
e|------3-----3-----3-----3--1--0------------------0--8--6--5-----0-----|
B|----0-----0-----0-----0---------4--3--1--1--3--4-------------4-----1--|
G|--3-----3-----3-----3-------------------------------------------------|
D|----------------------------------------------------------------------|
A|----------------------------------------------------------------------|
E|----------------------------------------------------------------------|
  
  0:16 - 0:21
e|--7--6--7--5--3--7--6--7--5--3--5--3--7--8--------0---0-------|
B|-------------------------------------------7--8-----4---0--1--|
G|------------------------------------------------8-------------|
D|--------------------------------------------------------------|
A|--------------------------------------------------------------|
E|--------------------------------------------------------------|

  0:22 - 0:28
e|----------------3--1---0--------0--------------0--8--6--5--3--0--|
B|--------0--3--0------------3--4-----1--1--3--4-------------------|
G|--0---3--------------0---0--------0------------------------------|
D|----4------------------------------------------------------------|
A|-----------------------------------------------------------------|
E|-----------------------------------------------------------------|



Outro
  0:29 - 0:34
e|--5--5--7--5--3--2--3--5--3--0------3-------------|
B|-------------------------------3--3---4--3--1-----|
G|-----------------------------------------------0--|
D|--------------------------------------------------|
A|--------------------------------------------------|
E|--------------------------------------------------|

Repeat till infinity


| /  slide up
| \  slide down
| h  hammer-on
| p  pull-off
| ~  vibrato
| +  harmonic
| x  Mute note
===============================================================================
            

comments powered by Disqus
↑ Back to top | Misc Computer Games Tabs for Earthbound - Humoresque Of A Little Dog. Lyrics for acoustic guitar and electric guitar. Tablatures and chords are parodies/interpretations of the original songs. You may use it for private study, scholarship, research or language learning purposes only