» » »

Misc Computer Games, Dynasty Warriors 3 - Wu Zhang Plains Tabs (ver.1)

Artists:  A B C D E F G H I J K L M N O P Q R S T U V W X Y Z # 

Dynasty Warriors 3 - Wu Zhang Plains Tabs (ver.1)

Misc Computer Games Tabs
 Rating:
4/5 (4 votes)
Dynasty Warriors 3 - Wu Zhang Plains lessons Tabs too difficult? Try these video lessons and learn fast
                Sacred Ground (Wu Zhang Plains theme)[Dynasty Warriors 2/3]
------------------------------------------------------------

For those of you who have played the game Dynasty Warriors 2 or 3, this is
the theme from one of Shu's final missions, the battle of Wu Zhang plains.
For those of you who haven't, this is one amazing guitar piece.
Though it sounds fine with just one guitar, if you can get both guitar
parts playing at the same time, it sounds a hundred times better!

Tuning: Standard (E G B D A e)

Legend:
h=hammer on
x=palm mute/finger mute (either one is fine)


Guitar 1
---------

Intro
------

E|-------------------------------------------------------------------------|
B|-------------------------------------------------------------------------|
G|---5-------------5-------------------------------------------------------|
D|---5-----x-x-x---5------------------6----x-x-x-6---------3---------------|
A|---3-----x-x-x---3------------------6----x-x-x-6---------3---------------|
E|---------x-x-x----------------------4----x-x-x-4---------1---------------|


X|-------------------------------------------------------------------------|
X|-------------------------------------------------------------------------|
X|---5-------------5---------------------------------------6---------------|
X|---5-----x-x-x---5------------------6----x-x-x-6---------6---------------|
X|---3-----x-x-x---3------------------6----x-x-x-6---------4---------------|
X|---------x-x-x----------------------4----x-x-x-4-------------------------|


Main Riff(1)
-------------

E|-------------------------------------------------------------------------|
B|-------------------------------------------------------------------------|
G|---11h12---10---12h13-12--------8h10-12---10---8-7---8-------------------|
D|-----------------------------------------------------------10---9h10-----|
A|-------------------------------------------------------------------------|
E|-------------------------------------------------------------------------|

Main Riff(2)
------------

E|-------------------------------------------------------------------------|
B|-------------------------------------------------------------------------|
G|---11h12---10---12h13-12--------8h10-12---10---8-7---8 ---------9h10-----|
D|----------------------------------------------------------10-------------|
A|-------------------------------------------------------------------------|
E|-------------------------------------------------------------------------|

Bridge
-------

This one takes a decent amount of stamina, but it's not a very hard riff if
you know how to finger mute.

E|--------------------------------------------------------------------------|
B|--------------------------------------------------------------------------|
G|--------------------------------------------------------------------------|
D|---5-5-x-x-x-x-5-5-x-x-x-x-5-5-x-x-5-5-x-x-x-x-5-5-x-x-x-x-5-5-x-x--------|
A|---5-5-x-x-x-x-5-5-x-x-x-x-5-5-x-x-5-5-x-x-x-x-5-5-x-x-x-x-5-5-x-x--------|
E|---3-3-x-x-x-x-3-3-x-x-x-x-3-3-x-x-3-3-x-x-x-x-3-3-x-x-x-x-3-3-x-x--------|

E|--------------------------------------------------------------------------|
B|--------------------------------------------------------------------------|
G|--------------------------------------------------------------------------|
D|---6-6-x-x-x-x-6-6-x-x-x-x-6-6-x-x-6-6-x-x-x-x-6-6-x-x-x-x-6-6-x-x--------|
A|---6-6-x-x-x-x-6-6-x-x-x-x-6-6-x-x-6-6-x-x-x-x-6-6-x-x-x-x-6-6-x-x--------|
E|---4-4-x-x-x-x-4-4-x-x-x-x-4-4-x-x-4-4-x-x-x-x-4-4-x-x-x-x-4-4-x-x--------|

E|--------------------------------------------------------------------------|
B|--------------------------------------------------------------------------|
G|--------------------------------------------------------------------------|
D|---3-3-x-x-x-x-3-3-x-x-x-x-3-3-x-x-3-3-x-x-x-x-3-3-x-x-x-x-3-3-x-x--------|
A|---3-3-x-x-x-x-3-3-x-x-x-x-3-3-x-x-3-3-x-x-x-x-3-3-x-x-x-x-3-3-x-x--------|
E|---1-1-x-x-x-x-1-1-x-x-x-x-1-1-x-x-1-1-x-x-x-x-1-1-x-x-x-x-1-1-x-x--------|

E|--------------------------------------------------------------------------|
B|--------------------------------------------------------------------------|
G|--------------------------------------------------------------------------|
D|---5-5-x-x-x-x-5-5-x-x-x-x-5-5-x-x-5-5-x-x-x-x-5-5-x-x-x-x-5-5-x-x--------|
A|---5-5-x-x-x-x-5-5-x-x-x-x-5-5-x-x-5-5-x-x-x-x-5-5-x-x-x-x-5-5-x-x--------|
E|---3-3-x-x-x-x-3-3-x-x-x-x-3-3-x-x-3-3-x-x-x-x-3-3-x-x-x-x-3-3-x-x--------|

E|--------------------------------------------------------------------------|
B|--------------------------------------------------------------------------|
G|--------------------------------------------------------------------------|
D|---6-6-x-x-x-x-6-6-x-x-x-x-6-6-x-x-6-6-x-x-x-x-6-6-x-x-x-x-6-6-x-x--------|
A|---6-6-x-x-x-x-6-6-x-x-x-x-6-6-x-x-6-6-x-x-x-x-6-6-x-x-x-x-6-6-x-x--------|
E|---4-4-x-x-x-x-4-4-x-x-x-x-4-4-x-x-4-4-x-x-x-x-4-4-x-x-x-x-4-4-x-x--------|

E|--------------------------------------------------------------------------|
B|--------------------------------------------------------------------------|
G|---6-6---------6-6---------6-6-----6-6---------6-6---------6-6------------|
D|---6-6-x-x-x-x-6-6-x-x-x-x-6-6-x-x-6-6-x-x-x-x-6-6-x-x-x-x-6-6-x-x--------|
A|---4-4-x-x-x-x-4-4-x-x-x-x-4-4-x-x-4-4-x-x-x-x-4-4-x-x-x-x-4-4-x-x--------|
E|-------x-x-x-x-----x-x-x-x-----x-x-----x-x-x-x-----x-x-x-x-----x-x--------|


E|--------------------------------------------------------------------------|
B|--------------------------------------------------------------------------|
G|--------------------------------------------------------------------------|
D|---5-5-x-x-x-x-5-5-x-x-x-x-5-5-x-x-5-5-x-x-x-x-5-5-x-x-x-x-5-5-x-x--------|
A|---5-5-x-x-x-x-5-5-x-x-x-x-5-5-x-x-5-5-x-x-x-x-5-5-x-x-x-x-5-5-x-x--------|
E|---3-3-x-x-x-x-3-3-x-x-x-x-3-3-x-x-3-3-x-x-x-x-3-3-x-x-x-x-3-3-x-x--------|

E|--------------------------------------------------------------------------|
B|--------------------------------------------------------------------------|
G|--------------------------------------------------------------------------|
D|---6-6-x-x-x-x-6-6-x-x-x-x-6-6-x-x-6-6-x-x-x-x-6-6-x-x-x-x-6-6-x-x--------|
A|---6-6-x-x-x-x-6-6-x-x-x-x-6-6-x-x-6-6-x-x-x-x-6-6-x-x-x-x-6-6-x-x--------|
E|---4-4-x-x-x-x-4-4-x-x-x-x-4-4-x-x-4-4-x-x-x-x-4-4-x-x-x-x-4-4-x-x--------|

E|--------------------------------------------------------------------------|
B|--------------------------------------------------------------------------|
G|--------------------------------------------------------------------------|
D|---8-8-x-x-x-x-8-8-x-x-x-x-8-8-x-x-8-8-x-x-x-x-8-8-x-x-x-x-8-8-x-x--------|
A|---8-8-x-x-x-x-8-8-x-x-x-x-8-8-x-x-8-8-x-x-x-x-8-8-x-x-x-x-8-8-x-x--------|
E|---6-6-x-x-x-x-6-6-x-x-x-x-6-6-x-x-6-6-x-x-x-x-6-6-x-x-x-x-6-6-x-x--------|

Outro
------

E|--------------------------------------------------------------------7h8---|
B|---------------------------------------------------------8---9---11-------|
G|---11h12---10---12h13-12-----8h10-12---10---8-7---8---10------------------|
D|--------------------------------------------------------------------------|
A|--------------------------------------------------------------------------|
E|--------------------------------------------------------------------------|

Song Order(guitar 1)
----------------------
Intro
Main Riff 1
Main Riff 2
Main Riff 1
Main Riff 2
Bridge
Main Riff 1
Main Riff 2
Main Riff 1
Outro

Guitar 2
---------


[Guitar 2 is played on the same beat and at the same speed as guitar 1]

Intro
------
Same a Guitar 1

E|--------------------------------------------------------------------------|
B|--------------------------------------------------------------------------|
G|---5-----------5----------------------------------------------------------|
D|---5-----x-x-x-5------------------6----x-x-x-6---------3------------------|
A|---3-----x-x-x-3------------------6----x-x-x-6---------3------------------|
E|---------x-x-x--------------------4----x-x-x-4---------1------------------|


X|--------------------------------------------------------------------------|
X|--------------------------------------------------------------------------|
X|---5-----------5---------------------------------------6------------------|
X|---5-----x-x-x-5------------------6----x-x-x-6---------6------------------|
X|---3-----x-x-x-3------------------6----x-x-x-6---------4------------------|
X|---------x-x-x--------------------4----x-x-x-4----------------------------|


Main Riff 1
---------------

E|--------------------------------------------------------------------------|
B|--------------------------------------------------------------------------|
G|--------------------------------------------------------------------------|
D|--------------------------------------------------------------------------|
A|---9h10---8---10h11-10--------6h8-10---8---6-5---6------------------------|
E|-----------------------------------------------------8---7h8--------------|


E|--------------------------------------------------------------------------|
B|--------------------------------------------------------------------------|
G|--------------------------------------------------------------------------|
D|--------------------------------------------------------------------------|
A|---9h10---8---10h11-10--------6h8-10---8---6-5---6-------7h8--------------|
E|-----------------------------------------------------8--------------------|

Main Riff 2a
---------------

E|---14h15---13---15h16-15--------11h13-15---13---11-10-----------------------|
B|--------------------------------------------------------13---12h13----------|
G|----------------------------------------------------------------------------|
D|----------------------------------------------------------------------------|
A|----------------------------------------------------------------------------|
E|----------------------------------------------------------------------------|

Main Riff 2b
---------------

E|---14h15---13---15h16-15--------11h13-15---13---11-10--------12h11--------|
B|--------------------------------------------------------13----------------|
G|--------------------------------------------------------------------------|
D|--------------------------------------------------------------------------|
A|--------------------------------------------------------------------------|
E|--------------------------------------------------------------------------|

Bridge
-------

exactly the same as guitar 1. The only harmonizing you could pull off with
this one is if you used a different distortion setting, maybe a bit of wah.

E|--------------------------------------------------------------------------|
B|--------------------------------------------------------------------------|
G|--------------------------------------------------------------------------|
D|---5-5-x-x-x-x-5-5-x-x-x-x-5-5-x-x-5-5-x-x-x-x-5-5-x-x-x-x-5-5-x-x--------|
A|---5-5-x-x-x-x-5-5-x-x-x-x-5-5-x-x-5-5-x-x-x-x-5-5-x-x-x-x-5-5-x-x--------|
E|---3-3-x-x-x-x-3-3-x-x-x-x-3-3-x-x-3-3-x-x-x-x-3-3-x-x-x-x-3-3-x-x--------|

E|--------------------------------------------------------------------------|
B|--------------------------------------------------------------------------|
G|--------------------------------------------------------------------------|
D|---6-6-x-x-x-x-6-6-x-x-x-x-6-6-x-x-6-6-x-x-x-x-6-6-x-x-x-x-6-6-x-x--------|
A|---6-6-x-x-x-x-6-6-x-x-x-x-6-6-x-x-6-6-x-x-x-x-6-6-x-x-x-x-6-6-x-x--------|
E|---4-4-x-x-x-x-4-4-x-x-x-x-4-4-x-x-4-4-x-x-x-x-4-4-x-x-x-x-4-4-x-x--------|

E|--------------------------------------------------------------------------|
B|--------------------------------------------------------------------------|
G|--------------------------------------------------------------------------|
D|---3-3-x-x-x-x-3-3-x-x-x-x-3-3-x-x-3-3-x-x-x-x-3-3-x-x-x-x-3-3-x-x--------|
A|---3-3-x-x-x-x-3-3-x-x-x-x-3-3-x-x-3-3-x-x-x-x-3-3-x-x-x-x-3-3-x-x--------|
E|---1-1-x-x-x-x-1-1-x-x-x-x-1-1-x-x-1-1-x-x-x-x-1-1-x-x-x-x-1-1-x-x--------|

E|--------------------------------------------------------------------------|
B|--------------------------------------------------------------------------|
G|--------------------------------------------------------------------------|
D|---5-5-x-x-x-x-5-5-x-x-x-x-5-5-x-x-5-5-x-x-x-x-5-5-x-x-x-x-5-5-x-x--------|
A|---5-5-x-x-x-x-5-5-x-x-x-x-5-5-x-x-5-5-x-x-x-x-5-5-x-x-x-x-5-5-x-x--------|
E|---3-3-x-x-x-x-3-3-x-x-x-x-3-3-x-x-3-3-x-x-x-x-3-3-x-x-x-x-3-3-x-x--------|

E|--------------------------------------------------------------------------|
B|--------------------------------------------------------------------------|
G|--------------------------------------------------------------------------|
D|---6-6-x-x-x-x-6-6-x-x-x-x-6-6-x-x-6-6-x-x-x-x-6-6-x-x-x-x-6-6-x-x--------|
A|---6-6-x-x-x-x-6-6-x-x-x-x-6-6-x-x-6-6-x-x-x-x-6-6-x-x-x-x-6-6-x-x--------|
E|---4-4-x-x-x-x-4-4-x-x-x-x-4-4-x-x-4-4-x-x-x-x-4-4-x-x-x-x-4-4-x-x--------|

E|--------------------------------------------------------------------------|
B|--------------------------------------------------------------------------|
G|---6-6---------6-6---------6-6-----6-6---------6-6---------6-6------------|
D|---6-6-x-x-x-x-6-6-x-x-x-x-6-6-x-x-6-6-x-x-x-x-6-6-x-x-x-x-6-6-x-x--------|
A|---4-4-x-x-x-x-4-4-x-x-x-x-4-4-x-x-4-4-x-x-x-x-4-4-x-x-x-x-4-4-x-x--------|
E|-------x-x-x-x-----x-x-x-x-----x-x-----x-x-x-x-----x-x-x-x-----x-x--------|


E|--------------------------------------------------------------------------|
B|--------------------------------------------------------------------------|
G|--------------------------------------------------------------------------|
D|---5-5-x-x-x-x-5-5-x-x-x-x-5-5-x-x-5-5-x-x-x-x-5-5-x-x-x-x-5-5-x-x--------|
A|---5-5-x-x-x-x-5-5-x-x-x-x-5-5-x-x-5-5-x-x-x-x-5-5-x-x-x-x-5-5-x-x--------|
E|---3-3-x-x-x-x-3-3-x-x-x-x-3-3-x-x-3-3-x-x-x-x-3-3-x-x-x-x-3-3-x-x--------|

E|--------------------------------------------------------------------------|
B|--------------------------------------------------------------------------|
G|--------------------------------------------------------------------------|
D|---6-6-x-x-x-x-6-6-x-x-x-x-6-6-x-x-6-6-x-x-x-x-6-6-x-x-x-x-6-6-x-x--------|
A|---6-6-x-x-x-x-6-6-x-x-x-x-6-6-x-x-6-6-x-x-x-x-6-6-x-x-x-x-6-6-x-x--------|
E|---4-4-x-x-x-x-4-4-x-x-x-x-4-4-x-x-4-4-x-x-x-x-4-4-x-x-x-x-4-4-x-x--------|

E|--------------------------------------------------------------------------|
B|--------------------------------------------------------------------------|
G|--------------------------------------------------------------------------|
D|---8-8-x-x-x-x-8-8-x-x-x-x-8-8-x-x-8-8-x-x-x-x-8-8-x-x-x-x-8-8-x-x--------|
A|---8-8-x-x-x-x-8-8-x-x-x-x-8-8-x-x-8-8-x-x-x-x-8-8-x-x-x-x-8-8-x-x--------|
E|---6-6-x-x-x-x-6-6-x-x-x-x-6-6-x-x-6-6-x-x-x-x-6-6-x-x-x-x-6-6-x-x--------|


Outro
------
Let the last note ring, and it sounds amazing!

E|---14h15---13---15h16-15------11h13-15---13---11-10---11---13-15----------|
B|--------------------------------------------------------------------------|
G|--------------------------------------------------------------------------|
D|--------------------------------------------------------------------------|
A|--------------------------------------------------------------------------|
E|--------------------------------------------------------------------------|

E|---16---18-19h20---------------------------------------------------------|
B|-------------------------------------------------------------------------|
G|-------------------------------------------------------------------------|
D|-------------------------------------------------------------------------|
A|-------------------------------------------------------------------------|
E|-------------------------------------------------------------------------|

Guitar 2 Song Order
--------------------
Intro
Main riff 1
Main riff 2a
Main riff 2b
Bridge
Main riff 2a
Main riff 2b
Main riff 2a
Outro

Well, enjoy!
I always loved this song...
            
Submit corrections

comments powered by Disqus
↑ Back to top | Misc Computer Games Tabs for Dynasty Warriors 3 - Wu Zhang Plains. Lyrics for acoustic guitar and electric guitar. Tablatures and chords are parodies/interpretations of the original songs. You may use it for private study, scholarship, research or language learning purposes only