» » »

Dragonball Z - We Gotta Power Opening Tabs (ver.1)

Artists:  A B C D E F G H I J K L M N O P Q R S T U V W X Y Z # 

Dragonball Z - We Gotta Power Opening Tabs (ver.1)

Misc Computer Games
Rating:
0/5 (0 votes)

Hard to play? Try these video lessons and learn fast.
                Dragon ball Z (opening)– we gotta power

Afinación estándar: mi-la-re-sol-si-mi (E A D G B E)…….Tab por kilterry

e|----------------------------------------------------------------------|
B|--------------------------------12-12-10-10-10h12p10-8-8-7------------|
G|---7-9-9-9--11-12-11-9--7-7-9-9----------------------------7-7--------|
D|-9-------------------------------------------------------------9-9----|
A|----------------------------------------------------------------------|
E|----------------------------------------------------------------------|

e|--------------------------------------------------------------------|
B|--------------------------------12-12-10-10-10h12p10-8-8-7----------|
G|---7-9-9-9--11-12-11-9--7-7-9-9----------------------------7-7-9-9--|
D|-9------------------------------------------------------------------|
A|--------------------------------------------------------------------|
E|--------------------------------------------------------------------|

e|-7-5--10-8--7-5-5-7-7------7-8-7-7--7-5--10-8--7-5-5-7-7------7-8-7-7-|
B|----------------------8-10-------------------------------8-10---------|
G|----------------------------------------------------------------------|
D|----------------------------------------------------------------------|
A|----------------------------------------------------------------------|
E|----------------------------------------------------------------------|

e|-15--14-14h15p14-12--10--10-12-12--------15--14-14h15p14-12--10--------12-12-|
B|---------------------------------15-12-12----------------------12-12-15------|
G|-----------------------------------------------------------------------------|
D|-----------------------------------------------------------------------------|
A|-----------------------------------------------------------------------------|
E|-----------------------------------------------------------------------------|

e|12-14-15-15-12--15-15-12--14-14-10--14-14-10--15-14-14h15p14-12-10--------------------14-15--|
B|------------------------------------------------------------------13-13-13-15-15-15-12-------|
G|---------------------------------------------------------------------------------------------|
D|---------------------------------------------------------------------------------------------|
A|---------------------------------------------------------------------------------------------|
E|---------------------------------------------------------------------------------------------|

e|-15--14-14h15p14-12--10--10-12-12--------15--14-14h15p14-12--10--------12-12-|
B|---------------------------------15-12-12----------------------12-12-15------|
G|-----------------------------------------------------------------------------|
D|-----------------------------------------------------------------------------|
A|-----------------------------------------------------------------------------|
E|-----------------------------------------------------------------------------|

e|12-14-15-15-12--15-15-12--14-14-10--14-14-10--15-14-14h15p14-12-10--------------------14-15-----|
B|------------------------------------------------------------------13-13-13-15-15-15-12----------|
G|------------------------------------------------------------------------------------------------|
D|-------------------------------------------------------------------------------------------12-14|
A|------------------------------------------------------------------------------------------------|
E|------------------------------------------------------------------------------------------------|

Que c/u le ponga su talento en efectos, slide, vibratos, bends, incluso otras notas o utilizar
otras cuerdas para que quede mejor adornado y suene mejor el tema...chau rockeenlo!
            
Hard to play? Try these video lessons and learn fast. | Correct




comments powered by Disqus
↑ Back to top | Tablatures and chords are parodies/interpretations of the original songs. You may use it for private study, scholarship, research or language learning purposes only