>
 >
Doom - Military Basee

Doom - Military Basee Guitar Tabs

Misc Computer Games - Doom - Military Basee chords, tabs, tablatures, lyrics

Guitar lessons | Add/correct | Request | Top 50 tabs Artists:  A B C D E F G H I J K L M N O P Q R S T U V W X Y Z 0-9

Doom - Military Basee Guitar Tabs – Misc Computer Games

CD, Sheet music, Poster

Do you like Doom - Military Basee? Share with your friends now
Tabs
Music by Robert Prince

This one is in stanard tuning with some overdrive, and this is from special level from
Episode 1 if you don't recognize it. I tabbed this with the midi as I did with the other
one.
Anyway, fun song, and have fun playing it. 

[4/9/06] I corrected the vibratos. 


E|------------------------0-|------------------------------|
B|--4-2--2-0-2--2--4-2--4---|--4-2--0-4--2--2-0--2--2--4-2-|
G|--------------------------|------------------------------|
D|--------------------------|------------------------------|
A|--------------------------|------------------------------|
e|--------------------------|------------------------------|
                                                         
---------------------------|-----------0----------------|
---4--4-------4-2--2-0--2--|--2-4-2--4---4--2-0-4-2--2--|
----------4b---------------|----------------------------|
---------------------------|----------------------------|
---------------------------|----------------------------|
---------------------------|----------------------------|


                                                           
----------------------------|-----------------------0-----|
--0-2--2-4--2--4-4-------4--|--2--2--0-2--2--4-2--4---4-2-|
---------------------4------|-----------------------------|
----------------------------|-----------------------------|
----------------------------|----------------------------|
----------------------------|-----------------------------|


                                                         
----------------------------|---0-----------------------|
---0-4--2--2-0--2--2-4-2--4-|-------0---4-2--2-0-2--2-4-|
----------------------------|---------------------------|
----------------------------|---------------------------|
----------------------------|---------------------------|
----------------------------|---------------------------|


                                                         
--------0--------------------|-------------0-------4--2-|
---2--4----4-2-0-4-2--2--0-2-|----2-4-2--4-----0--------|
-----------------------------|--------------------------|
-----------------------------|--------------------------|
-----------------------------|--------------------------|
-----------------------------|--------------------------|


                                                          
---2-0-2--2-4-2--4--5-4-2-0-|----4-2--2-0-2--2-4--2--4-5-|
----------------------------|----------------------------|
----------------------------|----------------------------|
----------------------------|----------------------------|
----------------------------|----------------------------|
----------------------------|----------------------------|


                                                         
--------4-2--2-0-2--2-4--2-|----4-5--4-2--0-4-2--2-0-2--|
----5----------------------|----------------------------|
---------------------------|----------------------------|
---------------------------|----------------------------|
---------------------------|----------------------------|
---------------------------|----------------------------|


                                                             
---2--4-2--4--4---0---------|-------------------0-----------|
---------------------4-2--2-|---0--2--2-4-2--4----4--2-0--4-|
----------------------------|-------------------------------|
----------------------------|-------------------------------|
----------------------------|-------------------------------|
----------------------------|-------------------------------|


                                                       
-----------------------0--|---------------------------|
---2--2-0-2--2-4--2--4----|---0---4-2--2-0-2--2--4-2--|
--------------------------|---------------------------|
--------------------------|---------------------------|
--------------------------|---------------------------|
--------------------------|---------------------------|


                                                            
-----0------------------------|-----------0----------------|
---4---4-2--0-4--2--2-0--2--2-|---4-2--4------0--------0---|
------------------------------|-------------------1-2----2-|
------------------------------|----------------------------|
------------------------------|----------------------------|
------------------------------|----------------------------|


                                                       
-------------0-------------|------------------0-------|
------0-2-4----4---2-------|---0-------0-2-4----2---0-|
---1-------------------1-2-|------2-1-----------------|
---------------------------|--------------------------|
---------------------------|--------------------------|
---------------------------|--------------------------|


                                                         
------------------------0-|------0----------------------|
---------0------0--2-4----|---2------------0--------0-2-|
---1--2----2-1------------|----------1--2----2--1-------|
--------------------------|-----------------------------|
--------------------------|-----------------------------|
--------------------------|-----------------------------|


                                                                 
------0-----0----------0-------|--------------------------------|
---4----2-------2--2-4----4--4-|--2--0---------0---------2--2-4-|
-------------------------------|-------1--1-2----2---1----------|
-------------------------------|--------------------------------|
-------------------------------|--------------------------------|
-------------------------------|--------------------------------|


                                                                  
--0--2-0------------------------|-----4-3--4-5-4---4-----------0-|
----------4-2---------0---------|--2-------------5-----4--3-4----|
--------------1--1--2---2---1---|--------------------------------|
--------------------------------|--------------------6-----------|
--------------------------------|--------------------------------|
--------------------------------|--------------------------------|


                                                          
---------4-3--4-0-4----4------|------0-------------------|
-------2------------4-------4-|--3-4---------4-2--2-0-2--|
---2---------------------1----|----------2---------------|
------------------------------|--------------------------|
------------------------------|--------------------------|
------------------------------|--------------------------|


                                                         
-----------0----------------|------------------0--------|
--2-4-2--4----4-2--0-4-2--2-|--0-2--2--4-2--4------0--4-|
----------------------------|---------------------------|
----------------------------|---------------------------|
----------------------------|---------------------------|
----------------------------|---------------------------|


                                                          
------------------------0----|---------------------------|
--2--2-0--2--2-4--2--4----4--|--2-0--4-2--2-0-2--2-4--2--|
-----------------------------|---------------------------|
-----------------------------|---------------------------|
-----------------------------|---------------------------|
-----------------------------|---------------------------|


                                                           
----0-------4-2--2--0-2--2--|--4-2--4-5-4-2--0-4--2--2-0--|
--4-----0-------------------|-----------------------------|
----------------------------|-----------------------------|
----------------------------|-----------------------------|
----------------------------|-----------------------------|
----------------------------|-----------------------------|


                                                            
--2--2--4-2--4--5-------4-2--|---2-0--2--2-4-2--4-5--4-2-0-|
--------------------5--------|-----------------------------|
-----------------------------|-----------------------------|
-----------------------------|-----------------------------|
-----------------------------|-----------------------------|
-----------------------------|-----------------------------|


                                                          
---4-2--2--0-2--2-4--2--4-4-|----0-----------------------|
----------------------------|--------4--2--2-0-2--2--4-2-|
----------------------------|----------------------------|
----------------------------|----------------------------|
----------------------------|----------------------------|
----------------------------|----------------------------|


                                                         
------0---------------------|------------0--------------|
----4---4--2-0-4--2--2-0-2--|---2-4-2--4-----0---4-2--2-|
----------------------------|---------------------------|
----------------------------|---------------------------|
----------------------------|---------------------------|
----------------------------|---------------------------|


                                                          
-------------------0----------|-----------------------0--|
----0-2--2-4--2--4----4-2-0-4-|---2--2--0-2--2-4-2--4----|
------------------------------|--------------------------|
------------------------------|--------------------------|
------------------------------|--------------------------|
------------------------------|--------------------------|


                                                         
---------------------------|---0------------------------|
---0---------0------0-2-4--|------4---2--------0------0-|
-------1--2----2-1---------|--------------1-2----2-1----|
---------------------------|----------------------------|
---------------------------|----------------------------|
---------------------------|----------------------------|


                                                          
---------0------------------|--------------0-----0-------|
---2--4----2---0--------0---|------0--2-4----2-----------|
-------------------1-2----2-|---1--------------------1-2-|
----------------------------|----------------------------|
----------------------------|----------------------------|
----------------------------|----------------------------|


                                                              
--------------------0------0-|-----------0-------------------|
----0-------0--2-4-----2-----|---2--2-4----4--4-2-0--------0-|
------2-1--------------------|----------------------1--1-2---|
-----------------------------|-------------------------------|
-----------------------------|-------------------------------|
-----------------------------|-------------------------------|


                                                                  
-------------------0-2-0--------|--------------------4--3-4--5-4-|
-----------2--2--4-------4-2----|--------0---------2-------------|
---2---1---------------------1--|---1-2----2---1-----------------|
--------------------------------|--------------------------------|
--------------------------------|--------------------------------|
--------------------------------|--------------------------------|


                                                                 
-----4----------0----------4-3-|---4-0--4----4-----------0------|
---5------4-3-4---------2------|----------4------4--3-4---------|
--------------------2----------|---------------1-------------2--|
--------6----------------------|--------------------------------|
-------------------------------|--------------------------------|
-------------------------------|--------------------------------|


                     
-------------------||
-------------------||
-------------------||
-------------------||
-------------------||
-------------------||





Comments


Popular Misc Computer Games tabs & chords
Donkey Kong 64 - Frantic Factory Bass Tabs
Doom 2 Theme Bass Tabs
Duke Nukem 3d Theme Bass Tabs
Chrono Cross - Times Scar Tabs
Chrono Trigger - Wind Scene Tabs
Doom 2 - Map 01 Tabs
Dynasty Warriors - Chibi Intro Tabs
Dynasty Warriors 5 - Run Run Run Tabs
Final Fantasy - Chocobo Theme Tabs
Baston - Build That Wall Zias Theme Ukulele


Song lyrics



↑ Back to top | Tablatures and chords are parodies/interpretations of the original songs. You may use it for private study, scholarship, research or language learning purposes only
© 2014 AZChords.com Contact us | Privacy policy | DMCA | Add/correct tabs | Request tabs | Top 50 tabs