>
 >
Diablo - Tristram Town

Diablo - Tristram Town Guitar Tabs

Misc Computer Games - Diablo - Tristram Town chords, tabs, tablatures, lyrics

Guitar lessons | Add/correct | Request | Top 50 tabs Artists:  A B C D E F G H I J K L M N O P Q R S T U V W X Y Z 0-9

Diablo - Tristram Town Guitar Tabs – Misc Computer Games

CD, Sheet music, Poster

Do you like Diablo - Tristram Town? Share with your friends now
Tabs
Let's get down to bussines.. By now you must have noticed that this is played on 2 12-string 
guitars. Since I don't have a 12-string, I did what I could on a 6-string. The parts in the 
brackets is how I play it on the 6-string.
Hope you like it!

/   - slide
h   - hammer
p   - pull off
{   - natural harmonic
b   - bend
/\/ - ornamentation
*   
*   - repeat once
   


Intro: 
     
When you play these 2 guitars together it will sound like three strokes, as in the recording.         
Or if you don't have a Diablo & guitar playing friend, you can just stroke 3 times. :)
Same goes for Section 3.

Guitar 1
|-0(0)-0-----------------------------|-0(0)-0----0-----0-------------------|  
|-0(0)-0-----------------------------|-0(0)-0-----0--0--0--0---------------|
|-2(9)-2-----------------------------|-2(8)-2------2-----2-----------------|  
|-2(7)-2-----------------------------|-1(7)-1-------1-----1----------------|     
|-0(7)-0-----------------------------|-0(6)-0------------------------------|   
|--(5)-------------------------------|--(5)--------------------------------|
Guitar 2
|-0(0)---0---------------------------|-0(0)---0--0-------------------------|
|-0(0)---0---------------------------|-0(0)---0---0--0--0--0---------------|
|-2(9)---2---------------------------|-2(8)---2----2--2--2--2--------------|
|-2(7)---2---------------------------|-1(7)---1-----1--1--1--1-------------|
|-0(7)---0---------------------------|-0(6)---0----------------------------|
|--(5)-------------------------------|--(5)--------------------------------|
 


|-0(0)-0-----------------------------|-0(0)-0------------------------------|  
|-0(0)-0-----------------------------|-0(0)-0------------------------------|
|-2(9)-2-----------------------------|-2(8)-2------------------------------|  
|-2(7)-2-----------------------------|-1(7)-1------------------------------|     
|-0(7)-0-----------------------------|-0(6)-0------------------------------|   
|--(5)-------------------------------|--(5)--------------------------------|

|-0(0)---0---------------------------|-0(0)---0----------------------------|
|-0(0)---0---------------------------|-0(0)---0----------------------------|
|-2(9)---2---------------------------|-2(8)---2----------------------------|
|-2(7)---2---------------------------|-1(7)---1----------------------------|
|-0(7)---0---------------------------|-0(6)---0----------------------------|
|--(5)-------------------------------|--(5)--------------------------------|



|-0-0-----------------------------|-0-0-----------------------------|
|-3-3-----------------------------|-3-3-----------------------------|
|-2-2-----------------------------|-3-3-----------------------------|
|-3-3-----------------------------|-0-0-----------------------------| 
|---------------------------------|-0-0-----------------------------| 
|---------------------------------|---------------------------------|  
                                                                    
|-0---0---------------------------|-0---0---------------------------|
|-3---3---------------------------|-3---3---------------------------|
|-2---2---------------------------|-3---3---------------------------|
|-3---3---------------------------|-0---0---------------------------| 
|---------------------------------|-0---0---------------------------| 
|---------------------------------|---------------------------------|  



|-0-0-----------------------------|-0-0-----------------------------|
|-3-3-----------------------------|-3-3-----------------------------|
|-2-2-----------------------------|-3-3-----------------------------|
|-0-0-----------------------------|-0-0-----------------------------| 
|-0-0-----------------------------|-0-0-----------------------------| 
|---------------------------------|---------------------------------|  
 
|-0---0---------------------------|-0---0---------------------------|
|-3---3---------------------------|-3---3---------------------------|
|-2---2---------------------------|-3---3---------------------------|
|-0---0---------------------------|-0---0---------------------------| 
|-0---0---------------------------|-0---0---------------------------| 
|---------------------------------|---------------------------------|



|-0(0)-0----------------12{----------|-0(0)-0----0-----0-------------------|  
|-0(0)-0----------------12{----------|-0(0)-0-----0--0--0--0---------------|
|-2(9)-2------------12{--------------|-2(8)-2------2-----2-----------------|  
|-2(7)-2---------7{------------------|-1(7)-1-------1-----1----------------|     
|-0(7)-0-----------------------------|-0(6)-0------------------------------|   
|--(5)-------------------------------|--(5)--------------------------------|

|-0(0)---0---------------------------|-0(0)---0--0-------------------------|
|-0(0)---0---------------------------|-0(0)---0---0--0--0--0---------------|
|-2(9)---2---------------------------|-2(8)---2----2--2--2--2--------------|
|-2(7)---2---------------------------|-1(7)---1-----1--1--1--1-------------|
|-0(7)---0---------------------------|-0(6)---0----------------------------|
|--(5)-------------------------------|--(5)--------------------------------|



|-0(0)-0-----------------------------|-0(0)-0------------------------------||  
|-0(0)-0-----------------------------|-0(0)-0------------------------------||
|-2(9)-2-----------------------------|-2(8)-2------------------------------||  
|-2(7)-2-----------------------------|-1(7)-1------------------------------||     
|-0(7)-0-----------------------------|-0(6)-0------------------------------||   
|--(5)-------------------------------|--(5)--------------------------------||

|-0(0)---0---------------------------|-0(0)---0----------------------------||
|-0(0)---0---------------------------|-0(0)---0----------------------------||
|-2(9)---2---------------------------|-2(8)---2----------------------------||
|-2(7)---2---------------------------|-1(7)---1----------------------------||
|-0(7)---0---------------------------|-0(6)---0----------------------------||
|--(5)-------------------------------|--(5)--------------------------------||





Section 1:

Guitars 1 & 2        
|(1)--0---0---0--(1)--0---0---0-|(1/2)--0---0---0--(2)--0---0---0-|   
|-----0---0---0-------0---0---0-|-------0---0---0-------0---0---0-|   
|---2---2---2---2---2---2---2---|-----3---3---3---3---3---3---3---| 
|-3---------------3-------------|-3/4---------------4-------------|   
|-------------------------------|---------------------------------| 
|-------------------------------|---------------------------------| 



|(2/1)--0---0---0--(1)--0---0---0-|(1/2)--0---0---0--(2)--0---0---0-|   
|-------0---0---0-------0---0---0-|-------0---0---0-------0---0---0-|   
|-----2---2---2---2---2---2---2---|-----3---3---3---3---3---3---3---| 
|-4/3---------------3-------------|-3/4---------------4-------------|   
|---------------------------------|---------------------------------| 
|---------------------------------|---------------------------------| 
                    

                      /\/                                /\/
|(1)--0---0---0--(1)--010--0---0-|(1/2)--0---0---0--(2)--040--0---0-|   
|-----0---0---0-------0----0---0-|-------0---0---0-------0----0---0-|   
|---2---2---2---2---2----2---2---|-----3---3---3---3---3----3---3---| 
|-3---------------3--------------|-3/4---------------4--------------|   
|--------------------------------|----------------------------------| 
|--------------------------------|----------------------------------| 



|(2/1)--0---0---0--(1)--0---0---0-|-------0-------0----0------------||   
|-------0---0---0-------0---0---0-|---------0-------0--0------------||   
|-----2---2---2---2---2---2---2---|-----3-------3------3------------|| 
|-4/3---------------3-------------|-3/4-------2--------0------------||   
|---------------------------------|---------------------------------|| 
|---------------------------------|---------------------------------|| 





Section 2:              

Guitars 1 & 2
||--------0---------------0---------|-------0---------------0------------|| 
||------3---3-----------3---3-------|-----3---3-----------3---3----------||
||*---6-------6---6---6-------6---6-|---2-------2---2---2-------2---2---*||
||*-4-----------4---4-----------4---|-3-----------3---3-----------3-----*||
||----------------------------------|------------------------------------||
||----------------------------------|------------------------------------||


                                  Bridge:
|-------------------------0-------|-------2-/------5-/------8-/---------11-|
|-------1---------------1---1-----|-----1---/----4---/----7---/------10----|
|-----4---4-----------4-------4---|---2-----/--5-----/--8-----/---11-------|
|---2-------2---2---2-----------2-|-1-------/4-------/7-------/10----------| 
|-0-----------0---0---------------|----------------------------------------|
|---------------------------------|----------------------------------------|



|-------------^12{------v12{-------|---^12{-------------------------||
|-------------^12{------v12{-------|---^12{-------------------------||
|-------------^12{------v12{-------|---^12{-------------------------||
|-------------^12{------v12{-------|---^12{-------------------------||
|-------------^-7{------v-7{-------|---^-7{-------------------------||
|-0{-------------------------------|--------------------------------||




   
Section 3:

Don't forget the owl hoot in this part. :)

Guitar 1 
||--0-0----------------------------|-2-2----------------------------||
||--8-8----------------------------|-3-3----------------------------||
||*-5-5----------------------------|-4-4---------------------------*||
||*-7-7----------------------------|-5-5---------------------------*||
||--0-0----------------------------|-0-0----------------------------||
||---------------------------------|--------------------------------||
Guitar 2
||--0---0--------------------------|-2---2--------------------------||
||--8---8--------------------------|-3---3--------------------------||
||*-5---5--------------------------|-4---4-------------------------*||
||*-7---7--------------------------|-5---5-------------------------*||
||--0---0--------------------------|-0---0--------------------------||
||---------------------------------|--------------------------------||
  
 


|-0-0-----------------------------|-0-0----------------------------|
|-1-1-----------------------------|-3-3----------------------------|
|-2-2-----------------------------|-4-4----------------------------|
|-3-3-----------------------------|-5-5----------------------------|
|-x-x-----------------------------|-3-3----------------------------|
|-1-1-----------------------------|--------------------------------|

|-0---0---------------------------|-0---0--------------------------|
|-1---1---------------------------|-3---3--------------------------|
|-2---2---------------------------|-4---4--------------------------|
|-3---3---------------------------|-5---5--------------------------|
|-x---x---------------------------|-3---3--------------------------|
|-1---1---------------------------|--------------------------------|
 

      
Guitar 1 doesn't actually play these chords, but it sounds empty without them.

|-0-------------------------------|-0-------------------------------|
|-0-------------------------------|-0-------------------------------|
|-2-------------------------------|-1-------------------------------|
|-3-------------------------------|-2-------------------------------|
|-3-------------------------------|-2-------------------------------|
|-1-------------------------------|-0-------------------------------|

|---------------------------------|----------------------0{---------|
|---------------------------------|-----------------0{---0{---------|
|---------------------------------|---------------------------------|
|---------------------------------|---------------------------------|
|---------------------------------|---------------------------------|
|----------x-x-x-x----7/0---------|---------------------------------|



 
||--0-0----------------------------|-2-2----------------------------||
||--8-8----------------------------|-3-3----------------------------||
||*-5-5----------------------------|-4-4---------------------------*||
||*-7-7----------------------------|-5-5---------------------------*||
||--0-0----------------------------|-0-0----------------------------||
||---------------------------------|--------------------------------||

||--0---0--------------------------|-2---2--------------------------||
||--8---8--------------------------|-3---3--------------------------||
||*-5---5--------------------------|-4---4-------------------------*||
||*-7---7--------------------------|-5---5-------------------------*||
||--0---0--------------------------|-0---0--------------------------||
||---------------------------------|--------------------------------||
  
 


|-0-0-----------------------------|-0-0----------------------------|
|-1-1-----------------------------|-3-3----------------------------|
|-2-2-----------------------------|-4-4----------------------------|
|-3-3-----------------------------|-5-5----------------------------|
|-x-x-----------------------------|-3-3----------------------------|
|-1-1-----------------------------|--------------------------------|

|-0---0---------------------------|-0---0--------------------------|
|-1---1---------------------------|-3---3--------------------------|
|-2---2---------------------------|-4---4--------------------------|
|-3---3---------------------------|-5---5--------------------------|
|-x---x---------------------------|-3---3--------------------------|
|-1---1---------------------------|--------------------------------|




|-0-0-----------------------------|-0-------------------------------||
|-0-0-----------------------------|-0-------------------------------||
|-2-2-----------------------------|-1-------------------------------||
|-3-3-----------------------------|-2-------------------------------||
|-3-3-----------------------------|-2-------------------------------||
|-1-1-----------------------------|-0-------------------------------||

|-0---0---------------------------|---------------------------------||
|-0---0---------------------------|---------------------------------||
|-2---2---------------------------|---------------------------------||
|-3---3---------------------------|---------------------------------||
|-3---3---------------------------|-2b3b2---------------------------||
|-1---1---------------------------|-------0-------------------------||

  



Section 4:
  
Guitars 1 & 2  
|------(0)-------------(0)--------|------------(0)-------------(0)--|
|-----1-----1---------1-----1-----|-----0-----0---------0-----0-----|
|---2-----2-----2---2-----2-----2-|---0-----0-----0---0-----0-----0-|
|-------2---------------2---------|-------------2---------------2---|
|-0---------------0---------------|-------2---------------2---------|
|-------------0---------------0---|-0---------------0---------------|


        
|---------------------------------|---0-------0-------0-------0-----|
|-----0-----------0-------0-------|-6-------6-------5-------5---5---|
|-------2---2-------2-------2-----|-----4-------4-------4---------4-|
|---0-----0---0-------0-------0---|-------7-------7-------6---------| 
|-2-------------2-------2---------|---------------------------------|
|---------------------------------|---------------------------------|



|------(0)-------------(0)--------|------------(0)-------------(0)--|
|-----1-----1---------1-----1-----|-----0-----0---------0-----0-----|
|---2-----2-----2---2-----2-----2-|---0-----0-----0---0-----0-----0-|
|-------2---------------2---------|-------------2---------------2---|
|-0---------------0---------------|-------2---------------2---------|
|-------------0---------------0---|-0---------------0---------------|
       


|--------------7{-----------------||
|--------------7{----------12{----||
|--------------7{-----------------||
|--------------7{-----------------||
|-2/5----------x------------------||
|------7-------7{-----------------||





Bridge:

Guitar 1
|---2-------2-------2-------2-----|---2---2---2---2---2---2---2---2-|
|-----2-------2-------2-------2---|---------------------------------|
|-------3-------3-------3-------3-|---------------------------------|
|-4-------4-------4-------4-------|-4---4---4---4---4---3---0-------|
|---------------------------------|-----------------------------4---|
|---------------------------------|---------------------------------|
Guitar 2
|---2---2---2---2---2---2---2---2-|---2---2---2---2---2---2---2---2-|
|---------------------------------|---------------------------------|
|---------------------------------|---------------------------------|
|-4---4---4---4---4---4---4---4---|-4---4---4---4---4---3---0-------|
|---------------------------------|-----------------------------4---|
|---------------------------------|---------------------------------|



This is section 2, actually, but it doesn't hurt to write it down again.. :)

Guitars 1 & 2
||--------0---------------0---------|-------0---------------0------------|| 
||------3---3-----------3---3-------|-----3---3-----------3---3----------||
||*---6-------6---6---6-------6---6-|---2-------2---2---2-------2---2---*||
||*-4-----------4---4-----------4---|-3-----------3---3-----------3-----*||
||----------------------------------|------------------------------------||
||----------------------------------|------------------------------------||


                                  Bridge:
|-------------------------0-------|-------2-/------5-/------8-/---------11-||
|-------1---------------1---1-----|-----1---/----4---/----7---/------10----||
|-----4---4-----------4-------4---|---2-----/--5-----/--8-----/---11-------||
|---2-------2---2---2-----------2-|-1-------/4-------/7-------/10----------|| 
|-0-----------0---0---------------|----------------------------------------||
|---------------------------------|----------------------------------------||





Section 5:

This is not the exact strumming (I'll leave that to you), but I'd say the chords 
are pretty accurate.

Guitars 1 & 2
|--0-0-0-0-0-0-0-0-0-0-0-0-0-0-0-0-|-0-0-0-0-0-0-0-0-0-0-0-0-0-0-0-0-|
|--5-5-5-5-5-5-5-5-4-5-4-4-4-4-1-1-|-1-0-0-1-0-0-1-1-0-0-0-0-0-0-0-0-|
|--4-4-4-4-4-4-4-4-4-4-4-4-4-4-4-4-|-4-4-4-4-4-4-4-4-4-4-4-4-4-4-4-4-|
|----------------------------------|---------------------------------|
|----------------------------------|---------------------------------|
|----------------------------------|---------------------------------|



|-2-2-2-2-2-2-2-2-2-2-2-2-2-2-2-2-|-2-2-2-2-2-2-2-2-2-2-2-2-2-2-2-2--|
|-0-0-0-0-0-0-0-0-0-0-0-0-0-0-0-0-|-0-0-0-0-0-0-0-0-0-0-0-0-0-0-0-0--|
|-4-4-4-4-4-4-4-4-4-3-3-4-3-3-x-x-|-x-x-x-x-x-x-x-x-x-x-x-0-0-0-0-0--|
|-4-4-4-4-4-4-4-4-4-4-4-4-4-4-5-5-|-5-4-4-5-4-4-5-5-4-4-4-4-4-4-4-4--|
|---------------------------------|----------------------------------|
|---------------------------------|----------------------------------|



|--0-0-0-0-0-0-0-0-0-0-0-0-0-0-0-0-|-0-0-0-0-0-0-0-0-0-0-0-0-0-0-0-0-|
|--5-5-5-5-5-5-5-5-4-5-4-4-4-4-1-1-|-1-0-0-1-0-0-1-1-0-0-0-0-0-0-0-0-|
|--4-4-4-4-4-4-4-4-4-4-4-4-4-4-4-4-|-4-4-4-4-4-4-4-4-4-4-4-4-4-4-4-4-|
|----------------------------------|---------------------------------|
|----------------------------------|---------------------------------|
|----------------------------------|---------------------------------|



|-2-2-2-2-2-2-2-2-2-2-2-2-2-2-2-2-|-2-2-2-2-2-2-2-2-2-2-2-2-2-2-2-2--|
|-0-0-0-0-0-0-0-0-0-0-0-0-0-0-0-0-|-0-0-0-0-0-0-0-0-0-0-0-0-0-0-0-0--|
|-4-4-4-4-4-4-4-4-4-3-3-4-3-3-x-x-|-x-x-x-x-x-x-x-x-x-x-x-x-x-x-x-x--|
|-4-4-4-4-4-4-4-4-4-4-4-4-4-4-5-5-|-5-4-4-5-4-4-5-5-4-4-4-4-4-4-4-4--|
|---------------------------------|----------------------------------|
|---------------------------------|----------------------------------|



Guitar 1
|---------------------------------|---------------------------------|
|-2-----2-----2---3-----3-----3---|-2-----2-----2---3-----3-----3---|
|---3-----3-----3---3-----3-----3-|---3-----3-----3---3-----3-----3-|
|-----4-----4---------4-----4-----|-----4-----4---------4-----4-----|
|---------------------------------|---------------------------------|
|---------------------------------|---------------------------------|
Guitar 2
|-2-2-2-2-2-2-2-2-2-2-2-2-2-2-2-2-|-2-2-2-2-2-2-2-2-2-2-2-2-2-2-2-2-|
|-2-2-2-2-2-2-2-2-3-3-3-3-3-3-3-3-|-2-2-2-2-2-2-2-2-3-3-3-3-3-3-3-3-|
|-3-3-3-3-3-3-3-3-3-3-3-3-3-3-3-3-|-3-3-3-3-3-3-3-3-3-3-3-3-3-3-3-3-|
|-4-4-4-4-4-4-4-4-4-4-4-4-4-4-4-4-|-4-4-4-4-4-4-4-4-4-4-4-4-4-4-4-4-|
|---------------------------------|---------------------------------|
|---------------------------------|---------------------------------|



Guitars 1 & 2
|--0--------------------------||
|--3--------------------------||
|--3--------------------------||
|--4--------------------------||
|-----------------------------||
|-----------------------------||





Section 6:

Guitar 1
||----------2---------------3-------|---------2---------------0-------|
||--------0---0-----------0---0-----|-------0---0-----------0---0-----|
||*-----2-------2-------2-------2---|-----0-------0-------0-------0---|
||*---0-----------0---0-----------0-|---0-----------0---0-----------0-|
||--2---------------2---------------|-2---------------2---------------|
||----------------------------------|---------------------------------|
Guitar 2
||----------------------------------|---------------------------------|
||--------0---0-----------0---0-----|-------0---0-----------0---0-----|
||*-----2---2---2-------2---2---2---|-----0---0---0-------0---0---0---|
||*---0-----------0---0-----------0-|---0-----------0---0-----------0-|
||--2---------------2---------------|-2---------------2---------------|
||----------------------------------|---------------------------------|



|---------2---------------3-------|---------2---------------0---------||
|-------0---0-----------0---0-----|-------0---0-----------0---0-------||
|-----2-------2-------2-------2---|-----0-------0-------0-------0----*||
|---0-----------0---0-----------0-|---0-----------0---0-----------0--*||
|-2---------------2---------------|-2---------------2-----------------||
|---------------------------------|-----------------------------------||

|---------------------------------|-----------------------------------||
|-------0---0-----------0---0-----|-------0---0-----------0---0-------||
|-----2---2---2-------2---2---2---|-----0---0---0-------0---0---0----*||
|---0-----------0---0-----------0-|---0-----------0---0-----------0--*||
|-2---------------2---------------|-2---------------2-----------------||
|---------------------------------|-----------------------------------||



Guitars 1 & 2
|-------------------------0-------|-------------------------0-------|
|-------1---------------1---1-----|-------1---------------1---1-----|
|-----4---4-----------4-------4---|-----4---4-----------4-------4---|
|---2-------2---2---2-----------2-|---3-------3---3---3-----------3-|
|-0-----------0---0---------------|-0-----------0---0---------------|
|---------------------------------|---------------------------------|



|-------------------------0-------|---------------------------------|
|-------1---------------1---1-----|-------1---------------0---------|
|-----4---4-----------4-------4---|-----4---4-----------2---2-------|
|---2-------2---2---2-----------2-|---3-------3---3---3-------3---3-|
|-0-----------0---0---------------|-0-----------0---2-----------2---|
|---------------------------------|---------------------------------|



|-------------------------0-------|---------------------------------|
|-------3---------------3---3-----|-------2---------------2---------|
|-----0---0-----------0-------0---|-----2---2-----------0---0-------|
|---3-------3---3---3-----------3-|---2-------2---2---2-------2---2-|
|-1-----------1---1---------------|-0-----------0---1-----------1---|
|---------------------------------|---------------------------------|



|---------3-------3-------2-------||
|-------0---0-------0-----0-------||
|-----0-------0-------0---0-------||
|---1-----------1---------1-------||
|-2-----------------------2-------||
|---------------------------------||



Tha end. 
Mail me if you have any corrections. 
:)





Comments


Popular Misc Computer Games tabs & chords
Castlevania - Stage 2 Bass Tabs
Animaniacs - Nations Of The World Chords
Banjo Kazooie - Gobis Valley Tabs
Black Ops - Mask Walk Tabs
Chrono Cross - Another Arni Tabs
Chrono Cross - Bend Of Time Tabs
Donkey Kong Country 2 - Island Mapwelcome To Crocodile Isle Tabs
Fallout 3 - Point Lookout Theme Tabs
Hack - Puchiguso Farm Tabs
Deadly Premonition - Whistle Theme Ukulele


Song lyrics



↑ Back to top | Tablatures and chords are parodies/interpretations of the original songs. You may use it for private study, scholarship, research or language learning purposes only
© 2014 AZChords.com Contact us | Privacy policy | DMCA | Add/correct tabs | Request tabs | Top 50 tabs