» » »

Devil May Cry - Flock Off Griffon Battle Tabs (ver.1)

Artists:  A B C D E F G H I J K L M N O P Q R S T U V W X Y Z # 

Devil May Cry - Flock Off Griffon Battle Tabs (ver.1)

Misc Computer Games
Rating:
0/5 (0 votes)

Hard to play? Try these video lessons and learn fast.
                Tuning: Drop D  (DADGBe)

 . = Palm mute
 * = Harmonic
 h = Hammer on

IMO the greatest piece of music from the DMC soundtrack. I've been searching for tabs
this for ages and never found any, so, i decided i'd give it a go myself. This is my first
at tabbing anything, but i'm pretty sure i've got it. Any questions, comments or 
please feel free to E-Mail me.


Intro:

e|---------------------------------------------------------------------------|
B|---------------------------------------------------------------------------|
G|---------------------------------------------------------------------------|
D|-2-2---2-2---2-2---2-2---222---2-2---2-2---2-2---2-2---222-----------------|
A|-2-2---2-2---2-2---2-2---222---2-2---2-2---2-2---2-2---222-----------------|
D|-2-2---2-2---2-2---2-2---222---2-2---2-2---2-2---2-2---222-----------------|
   . .   . .   . .   . .   ...   . .   . .   . .   . .   ...

e|---------------------------------------------------------------------------|
B|---------------------------------------------------------------------------|
G|---------------------------------------------------------------------------|
D|-2-2---2-2---2-2---2-2---222---2-2---2-2---2-2---2-2---222-----------------|
A|-2-2---2-2---2-2---2-2---222---2-2---2-2---2-2---2-2---222-----------------|
D|-2-2---2-2---2-2---2-2---222---2-2---2-2---2-2---2-2---222-----------------|
   . .   . .   . .   . .   ...   . .   . .   . .   . .   ...

Riff 1:

e|---------------------------------------------------------------------------|
B|---------------------------------------------------------------------------|
G|---------------------------------------------------------------------------|
D|-2-2-2-2-2---3---3---3---2-2-2-2-2---3---3---3-----------------------------|
A|-2-2-2-2-2---3---3---3---2-2-2-2-2---3---3---3-----------------------------|
D|-2-2-2-2-2---3---3---3---2-2-2-2-2---3---3---3-----------------------------|
   . . . . .           .   . . . . .           .

e|---------------------------------------------------------------------------|
B|---------------------------------------------------------------------------|
G|---------------------------------------------------------------------------|
D|-2---2-2-2-2-2---2---2---2-2-2---2---2-2-2-2-2---2---2---2-2-2-------------|
A|-2---2-2-2-2-2---2---2---2-2-2---2---2-2-2-2-2---2---2---2-2-2-------------|
D|-2---2-2-2-2-2---2---2---2-2-2---2---2-2-2-2-2---2---2---2-2-2-------------|
   .   . . . . .   .   .   . . .   .   . . . . .   .   .   . . .

e|---------------------------------------------------------------------------|
B|---------------------------------------------------------------------------|
G|---------------------------------------------------------------------------|
D|-2-2-2-2-2---3---3---3---2-2-2-2-2---3---3---3-----------------------------|
A|-2-2-2-2-2---3---3---3---2-2-2-2-2---3---3---3-----------------------------|
D|-2-2-2-2-2---3---3---3---2-2-2-2-2---3---3---3-----------------------------|
   . . . . .           .   . . . . .           .

e|---------------------------------------------------------------------------|
B|---------------------------------------------------------------------------|
G|---------------------------------------------------------------------------|
D|-2---2-2-2-2-2---2---2---2-2-2---2---2-2-2-2-2---2---2---2-2-2-------------|
A|-2---2-2-2-2-2---2---2---2-2-2---2---2-2-2-2-2---2---2---2-2-2-------------|
D|-2---2-2-2-2-2---2---2---2-2-2---2---2-2-2-2-2---2---2---2-2-2-------------|
   .   . . . . .   .   .   . . .   .   . . . . .   .   .   . . .

Riff 2:

e|---------------------------------------------------------------------------|
B|---------------------------------------------------------------------------|
G|---------------------------------------------------------------------------|
D|-2---2---2---2---2h3---2h3---2---2---2---2---2h3---2h3---------------------|
A|-2---2---2---2---2h3---2h3---2---2---2---2---2h3---2h3---------------------|
D|-2---2---2---2---2h3---2h3---2---2---2---2---2h3---2h3---------------------|
   .   .   .   .               .   .   .   .

e|---------------------------------------------------------------------------|
B|---------------------------------------------------------------------------|
G|---------------------------------------------------------------------------|
D|-2---2---2---2---2h3---2h3---2---4-5---5---5---3-4-------------------------|
A|-2---2---2---2---2h3---2h3---2---4-5---5---5---3-4-------------------------|
D|-2---2---2---2---2h3---2h3---2---4-5---5---5---3-4-------------------------|
   .   .   .   .               .

Riff 3:

e|---------------------------------------------------------------------------|
B|---------------------------------------------------------------------------|
G|---------------------------------------------------------------------------|
D|-2-2---2-2---5---4---0-2---2-2---2-2---5---4---0-2-------------------------|
A|-2-2---2-2---5---4---0-2---2-2---2-2---5---4---0-2-------------------------|
D|-2-2---2-2---5---4---0-2---2-2---2-2---5---4---0-2-------------------------|
   . .   . .                 . .   . .

e|---------------------------------------------------------------------------|
B|---------------------------------------------------------------------------|
G|---------------------------------------------------------------------------|
D|-2-2---2-2---2-2---2-2---222---2-2---2-2---2-2---2-2---222-----------------|
A|-2-2---2-2---2-2---2-2---222---2-2---2-2---2-2---2-2---222-----------------|
D|-2-2---2-2---2-2---2-2---222---2-2---2-2---2-2---2-2---222-----------------|
   . .   . .   . .   . .   ...   . .   . .   . .   . .   ...

e|---------------------------------------------------------------------------|
B|---------------------------------------------------------------------------|
G|---------------------------------------------------------------------------|
D|-2-2---2-2---5---4---0-2---2-2---2-2---5---4---0-2-------------------------|
A|-2-2---2-2---5---4---0-2---2-2---2-2---5---4---0-2-------------------------|
D|-2-2---2-2---5---4---0-2---2-2---2-2---5---4---0-2-------------------------|
   . .   . .                 . .   . .

e|---------------------------------------------------------------------------|
B|---------------------------------------------------------------------------|
G|---------------------------------------------------------------------------|
D|-2-2---2-2---2-2---2-2---222---2-2---2-2---2-2---2-2---222-----------------|
A|-2-2---2-2---2-2---2-2---222---2-2---2-2---2-2---2-2---222-----------------|
D|-2-2---2-2---2-2---2-2---222---2-2---2-2---2-2---2-2---222-----------------|
   . .   . .   . .   . .   ...   . .   . .   . .   . .   ...

Riff 4:

e|------------------------------------------------------------------------------|
B|------------------------------------------------------------------------------|
G|------------------------------------------------------------------------------|
D|-2-2---2-2---2-2---2-2--------2-2---2-2---2-2---2-2---5---4-------------------|
A|-2-2---2-2---2-2---2-2--------2-2---2-2---2-2---2-2---5---4-------------------|
D|-2-2---2-2---2-2---2-2---3*---2-2---2-2---2-2---2-2---5---4-------------------|
   . .   . .   . .   . .        . .   . .   . .   . .

e|------------------------------------------------------------------------------|
B|------------------------------------------------------------------------------|
G|------------------------------------------------------------------------------|
D|-2-2---2-2---2-2---2-2--------2-2---2-2---2-2---2-2---------------------------|
A|-2-2---2-2---2-2---2-2--------2-2---2-2---2-2---2-2---------------------------|
D|-2-2---2-2---2-2---2-2---3*---2-2---2-2---2-2---2-2---------------------------|
   . .   . .   . .   . .        . .   . .   . .   . .

e|------------------------------------------------------------------------------|
B|------------------------------------------------------------------------------|
G|------------------------------------------------------------------------------|
D|-2-2---2-2---2-2---2-2--------2-2---2-2---2-2---2-2---5---4-------------------|
A|-2-2---2-2---2-2---2-2--------2-2---2-2---2-2---2-2---5---4-------------------|
D|-2-2---2-2---2-2---2-2---3*---2-2---2-2---2-2---2-2---5---4-------------------|
   . .   . .   . .   . .        . .   . .   . .   . .

e|------------------------------------------------------------------------------|
B|------------------------------------------------------------------------------|
G|------------------------------------------------------------------------------|
D|-2-2---2-2---2-2---2-2--------2-2---2-2---2-2---2-2---------------------------|
A|-2-2---2-2---2-2---2-2--------2-2---2-2---2-2---2-2---------------------------|
D|-2-2---2-2---2-2---2-2---3*---2-2---2-2---2-2---2-2---------------------------|
   . .   . .   . .   . .        . .   . .   . .   . .

Riff 1:

e|---------------------------------------------------------------------------|
B|---------------------------------------------------------------------------|
G|---------------------------------------------------------------------------|
D|-2-2-2-2-2---3---3---3---2-2-2-2-2---3---3---3-----------------------------|
A|-2-2-2-2-2---3---3---3---2-2-2-2-2---3---3---3-----------------------------|
D|-2-2-2-2-2---3---3---3---2-2-2-2-2---3---3---3-----------------------------|
   . . . . .           .   . . . . .           .

e|---------------------------------------------------------------------------|
B|---------------------------------------------------------------------------|
G|---------------------------------------------------------------------------|
D|-2---2-2-2-2-2---2---2---2-2-2---2---2-2-2-2-2---2---2---2-2-2-------------|
A|-2---2-2-2-2-2---2---2---2-2-2---2---2-2-2-2-2---2---2---2-2-2-------------|
D|-2---2-2-2-2-2---2---2---2-2-2---2---2-2-2-2-2---2---2---2-2-2-------------|
   .   . . . . .   .   .   . . .   .   . . . . .   .   .   . . .

e|---------------------------------------------------------------------------|
B|---------------------------------------------------------------------------|
G|---------------------------------------------------------------------------|
D|-2-2-2-2-2---3---3---3---2-2-2-2-2---3---3---3-----------------------------|
A|-2-2-2-2-2---3---3---3---2-2-2-2-2---3---3---3-----------------------------|
D|-2-2-2-2-2---3---3---3---2-2-2-2-2---3---3---3-----------------------------|
   . . . . .           .   . . . . .           .

e|---------------------------------------------------------------------------|
B|---------------------------------------------------------------------------|
G|---------------------------------------------------------------------------|
D|-2---2-2-2-2-2---2---2---2-2-2---2---2-2-2-2-2---2---2---2-2-2-------------|
A|-2---2-2-2-2-2---2---2---2-2-2---2---2-2-2-2-2---2---2---2-2-2-------------|
D|-2---2-2-2-2-2---2---2---2-2-2---2---2-2-2-2-2---2---2---2-2-2-------------|
   .   . . . . .   .   .   . . .   .   . . . . .   .   .   . . .

Riff 2:

e|---------------------------------------------------------------------------|
B|---------------------------------------------------------------------------|
G|---------------------------------------------------------------------------|
D|-2---2---2---2---2h3---2h3---2---2---2---2---2h3---2h3---------------------|
A|-2---2---2---2---2h3---2h3---2---2---2---2---2h3---2h3---------------------|
D|-2---2---2---2---2h3---2h3---2---2---2---2---2h3---2h3---------------------|
   .   .   .   .               .   .   .   .

e|---------------------------------------------------------------------------|
B|---------------------------------------------------------------------------|
G|---------------------------------------------------------------------------|
D|-2---2---2---2---2h3---2h3---2---4-5---5---5---3-4-------------------------|
A|-2---2---2---2---2h3---2h3---2---4-5---5---5---3-4-------------------------|
D|-2---2---2---2---2h3---2h3---2---4-5---5---5---3-4-------------------------|
   .   .   .   .               .

Riff 3:

e|---------------------------------------------------------------------------|
B|---------------------------------------------------------------------------|
G|---------------------------------------------------------------------------|
D|-2-2---2-2---5---4---0-2---2-2---2-2---5---4---0-2-------------------------|
A|-2-2---2-2---5---4---0-2---2-2---2-2---5---4---0-2-------------------------|
D|-2-2---2-2---5---4---0-2---2-2---2-2---5---4---0-2-------------------------|
   . .   . .                 . .   . .

e|---------------------------------------------------------------------------|
B|---------------------------------------------------------------------------|
G|---------------------------------------------------------------------------|
D|-2-2---2-2---2-2---2-2---222---2-2---2-2---2-2---2-2---222-----------------|
A|-2-2---2-2---2-2---2-2---222---2-2---2-2---2-2---2-2---222-----------------|
D|-2-2---2-2---2-2---2-2---222---2-2---2-2---2-2---2-2---222-----------------|
   . .   . .   . .   . .   ...   . .   . .   . .   . .   ...

e|---------------------------------------------------------------------------|
B|---------------------------------------------------------------------------|
G|---------------------------------------------------------------------------|
D|-2-2---2-2---5---4---0-2---2-2---2-2---5---4---0-2-------------------------|
A|-2-2---2-2---5---4---0-2---2-2---2-2---5---4---0-2-------------------------|
D|-2-2---2-2---5---4---0-2---2-2---2-2---5---4---0-2-------------------------|
   . .   . .                 . .   . .

e|---------------------------------------------------------------------------|
B|---------------------------------------------------------------------------|
G|---------------------------------------------------------------------------|
D|-2-2---2-2---2-2---2-2---222---2-2---2-2---2-2---2-2---222-----------------|
A|-2-2---2-2---2-2---2-2---222---2-2---2-2---2-2---2-2---222-----------------|
D|-2-2---2-2---2-2---2-2---222---2-2---2-2---2-2---2-2---222-----------------|
   . .   . .   . .   . .   ...   . .   . .   . .   . .   ...

Riff 4:

e|---------------------------------------------------------------------------|
B|---------------------------------------------------------------------------|
G|---------------------------------------------------------------------------|
D|-2-2---2-2---2-2---2-2-------2-2---2-2---2-2---2-2---5---4-----------------|
A|-2-2---2-2---2-2---2-2-------2-2---2-2---2-2---2-2---5---4-----------------|
D|-2-2---2-2---2-2---2-2---3*--2-2---2-2---2-2---2-2---5---4-----------------|
   . .   . .   . .   . .       . .   . .   . .   . .

e|---------------------------------------------------------------------------|
B|---------------------------------------------------------------------------|
G|---------------------------------------------------------------------------|
D|-2-2---2-2---2-2---2-2-------2-2---2-2---2-2---2-2-------------------------|
A|-2-2---2-2---2-2---2-2-------2-2---2-2---2-2---2-2-------------------------|
D|-2-2---2-2---2-2---2-2---3*--2-2---2-2---2-2---2-2-------------------------|
   . .   . .   . .   . .       . .   . .   . .   . .

e|---------------------------------------------------------------------------|
B|---------------------------------------------------------------------------|
G|---------------------------------------------------------------------------|
D|-2-2---2-2---2-2---2-2-------2-2---2-2---2-2---2-2---5---4-----------------|
A|-2-2---2-2---2-2---2-2-------2-2---2-2---2-2---2-2---5---4-----------------|
D|-2-2---2-2---2-2---2-2---3*--2-2---2-2---2-2---2-2---5---4-----------------|
   . .   . .   . .   . .       . .   . .   . .   . .

e|---------------------------------------------------------------------------|
B|---------------------------------------------------------------------------|
G|---------------------------------------------------------------------------|
D|-2-2---2-2---2-2---2-2-------2-2---2-2---2-2---2-2-------------------------|
A|-2-2---2-2---2-2---2-2-------2-2---2-2---2-2---2-2-------------------------|
D|-2-2---2-2---2-2---2-2---3*--2-2---2-2---2-2---2-2-------------------------|
   . .   . .   . .   . .       . .   . .   . .   . .


On the track, Riff 1 is played once more as it fades, however you can go on as long as
like (repeating riffs 1, 2, 3 and 4). Well, i believe that's it, aside from a few notes
on a second guitar, but it shouldn't be too hard to pick them up if you want to play it 
2 guitars.
            
Hard to play? Try these video lessons and learn fast. | Correct




comments powered by Disqus
↑ Back to top | Tablatures and chords are parodies/interpretations of the original songs. You may use it for private study, scholarship, research or language learning purposes only