» » »

Commander Keen - Youve Got To Eat Your Vegetables Tabs (ver.1)

Artists:  A B C D E F G H I J K L M N O P Q R S T U V W X Y Z # 

Commander Keen - Youve Got To Eat Your Vegetables Tabs (ver.1)

Misc Computer Games
Rating:
0/5 (0 votes)

Hard to play? Try these video lessons and learn fast.
                This is one of my favorite songs in the Commander Keen saga, a great series of games
free, the entire game, in its entirety, that contains this song as well as other cool
demos for games).  This song was written by Bobby Prince for Apogee.  Check out his

Tuning: Normal

e|-------------------------------------------------------------------------|
B|-0-3-0-3-0-77-0---7\6/8\7-----0-3-0-3-0-77-0---5-4-3-2-------------------|
G|-------------------------------------------------------------------------|
D|-------------------------------------------------------------------------|
A|-------------------------------------------------------------------------|
E|-------------------------------------------------------------------------|

e|------------------------------4-7-4-7-4-10-10-4---99-8-99-7--------------|
B|-------------------------------------------------------------------------|
G|-------------------------------------------------------------------------|
D|-------------------------------------------------------------------------|
A|-0-3-0-3-0-7-6-0---7\1---------------------------------------------------|
E|-------------------------------------------------------------------------|

If you want to, you can have a second guitar playing the background.  Just repeat this:

e|-------------------------------------------------------------------------|
B|-------------------------------------------------------------------------|
G|-------------------------------------------------------------------------|
D|-------------------------------------------------------------------------|
A|-------------------------------------------------------------------------|
E|-5-0-3-0-3-0-5-44--------------------------------------------------------|

Key:
| /  slide up
| \  slide down


Specific link to download Commander Keen 4: 
            
Hard to play? Try these video lessons and learn fast. | Correct




comments powered by Disqus
↑ Back to top | Tablatures and chords are parodies/interpretations of the original songs. You may use it for private study, scholarship, research or language learning purposes only