>
 >
Chrono Trigger - Secret Of The Forest

Chrono Trigger - Secret Of The Forest Guitar Tabs

Misc Computer Games - Chrono Trigger - Secret Of The Forest chords, tabs, tablatures, lyrics

Guitar lessons | Add/correct | Request | Top 50 tabs Artists:  A B C D E F G H I J K L M N O P Q R S T U V W X Y Z 0-9

Chrono Trigger - Secret Of The Forest Guitar Tabs – Misc Computer Games

CD, Sheet music, Poster

Do you like Chrono Trigger - Secret Of The Forest? Share with your friends now
Bass TabsTabsTabs v2
Chrono Trigger – Secret of the Forest *
*Brink of Time- Secret of the Forest

- From the Chrono Trigger OST. I’m not really sure of the exact details on this piece, 
I only downloaded this from Napster waaay back. This is the jazzy version of the Secret 
the Forest (this tune plays when your inside Guardia Forest).

-Anyways, if you can’t find the file in the internet, you're free to e-mail me for it.

Enjoy!

Intro: 00:00 – 00:22.
e|---------------------------------------------------------------------|
B|2h4-4-5-5/7---4/6-4----2h4-4-5-5/7--4-/6--5-5-2-2--------------------|
G|--------------------------------------------------2-2----------------|
D|------------------------------------------------------4-4------------|
A|---------------------------------------------------------------------|
E|---------------------------------------------------------------------|

e|---------------------------------------------------------------------|
B|2h4-4-5-5/7~~---4/6-4----2h4-4-5-5-5-2-2-----------------------------|
G|--------------5--------------------------2-2-------------------------|
D|---------------------------------------------4-4/--------------------|
A|---------------------------------------------------------------------|
E|---------------------------------------------------------------------|

1st Part: 00:23 – 00:45.
e|-------------14-------------12/14-10-12-10-10---10-------------------|
B|-----11h12h13----15p12------------------------12---12----------------|
G|11h12-----------------12---------------------------------------------|
D|---------------------------------------------------------------------|
A|---------------------------------------------------------------------|
E|---------------------------------------------------------------------|

e|---------12--12-9--9-------------------------------------------------|
B|------10-------------10--10------------------------------------------|
G|10h11-----------------------11--11-9-9h10p9p7-9~~--------------------|
D|---------------------------------------------------------------------|
A|---------------------------------------------------------------------|
E|---------------------------------------------------------------------|

e|------------12/14~~-12h13p12p11-12---10--12—10~~---------------------|
B|------10h11----------------------------------------------------------|
G|10h11----------------------------------------------------------------|
D|---------------------------------------------------------------------|
A|---------------------------------------------------------------------|
E|---------------------------------------------------------------------|

e|9-10-11-11/12~--9--9-------------------------------------------------|
B|---------------------10--10------------------------------------------|
G|----------------------------11--11-9-9h10p9p7-9~~~-------------------|
D|---------------------------------------------------------------------|
A|---------------------------------------------------------------------|
E|---------------------------------------------------------------------|
2nd Part: 00:46 – 01:08.
e|---------------------------------------------------------------------|
B|---------------------------------------------------------------------|
G|4/6~~~4--7/9~~/6~~--4--2--1-----2/4~/-1------1-2-3-4/6~~~4-7/9~-/-6--|
D|-----------------------------4-------------4-------------------------|
A|---------------------------------------------------------------------|
E|---------------------------------------------------------------------|

e|---------------------------------------------------------------------|
B|-7-9--10--12-14~~-12~~10~~9h10p9~~-----------------------------------|
G|---------------------------------------------------------------------|
D|---------------------------------------------------------------------|
A|---------------------------------------------------------------------|
E|---------------------------------------------------------------------|

 - Piano part.

3rd Part: 01:30 – 01:53.
e|---------------------------------------------------------------------|
B|---------------------------------------------------------------------|
G|-7/9~~8~7~6~~~4--7/9~~/6~~-2/4--2--1-----2/4~/-1------1-2-3-4/6~~~4--|
D|--------------------------------------4-------------4----------------|
A|---------------------------------------------------------------------|
E|---------------------------------------------------------------------|

e|---------------------------------------------------------------------|
B|----7------7-9--10--12-12/14~~-12~~10~~9h10p9~~----------------------|
G|7/9~--6~~------------------------------------------------------------|
D|---------------------------------------------------------------------|
A|---------------------------------------------------------------------|
E|---------------------------------------------------------------------|

 - Piano Part.

4th Part: 02:16 – 02:38.
e|---------------------------------------------------------------------|
B|-5/7~~--5--8/10/~7~~-5~~3~~2~~-0—3/5~/-2~----------------------------|
G|---------------------------------------------------------------------|
D|---------------------------------------------------------------------|
A|---------------------------------------------------------------------|
E|---------------------------------------------------------------------|

e|---------------------------------------------------------------------|
B|-0-2-3-4-5/7~~--5--8/10~-7~~-3/5--10/~-7~----------------------------|
G|---------------------------------------------------------------------|
D|---------------------------------------------------------------------|
A|---------------------------------------------------------------------|
E|---------------------------------------------------------------------|

e|-----------2-4-4/6-4-2-4-9--9--2--0----------------------------------|
B|---------2---------------------------3/5~~---------------------------|
G|-0-1-2-3-------------------------------------------------------------|
D|---------------------------------------------------------------------|
A|---------------------------------------------------------------------|
E|---------------------------------------------------------------------|
*This one’s pretty fast. I chose the higher strings because it has a more metallic sound 
the one’s in the lower strings, higher frets.

5th Part: 03:51 – 04:14.
e|----------------------------------------------------------------------|
B|----------------------------------------------------------------------|
G|0--2--4--4/6~~~4--7/9~~/6~~--2/4--2--1-----2/4~/-1------1-2-3-4/6~~~4-|
D|----------------------------------------4-------------4---------------|
A|----------------------------------------------------------------------|
E|----------------------------------------------------------------------|

e|---------------------------------------------------------------------|
B|--------------7-9--10--12-12h14~~-12~~10~~9h10p9~~-------------------|
G|-7/9~-/-6~~----------------------------------------------------------|
D|---------------------------------------------------------------------|
A|---------------------------------------------------------------------|
E|---------------------------------------------------------------------|

 - Piano part.

Adlib:
- 04:37
e|----------------------------7-10--10-9-8-6h8p6-----------------------|
B|--------3-4-6--4-6-7-7/10-10-------------------10-9-7----------------|
G|-0-2-4------------------------------------------------9-7-9~~/-------|
D|---------------------------------------------------------------------|
A|---------------------------------------------------------------------|
E|---------------------------------------------------------------------|

- 04:44
e|--10--10-------------------|
B|----13--12-----------------|
G|11----------11p9------9~---|
D|-----------------12p9----12|
A|---------------------------|
E|---------------------------|

- 04:46
e|--------10--12--14-----------------12h13p12p11-12—10-|
B|10/12~-------------13--15-17-15~---------------------|
G|-----------------------------------------------------|
D|-----------------------------------------------------|
A|-----------------------------------------------------|
E|-----------------------------------------------------|

e|-9------------------------------------9~--7~~~~----------------------|
B|---12-10-9-10-----------------12--12--------7~~----------------------|
G|--------------12-10-9-11--11-----------------7~----------------------|
D|---------------------------------------------------------------------|
A|---------------------------------------------------------------------|
E|---------------------------------------------------------------------|

04:58
e|-------------7-9/12~-10------|
B|---------7-9-------------12--|
G|-----7-9---------------------|
D|-7-9-------------------------|
A|-----------------------------|
E|-----------------------------|

- 05:01
e|---------14----------14--------12---------12-------------------------|
B|-10/12-12---10/12-12---10/12-12---10/12-12---10~---------------------|
G|---------------------------------------------------------------------|
D|---------------------------------------------------------------------|
A|---------------------------------------------------------------------|
E|---------------------------------------------------------------------|


e|-------9----------------------10~~-|
B|-10-12---12-10h11p10-9-10/12~------|
G|-----------------------------------|
D|-----------------------------------|
A|-----------------------------------|
E|-----------------------------------|

- 05:07
e|----10---------------------------------------------------------------|
B|-------13-10---------------------------------------------------------|
G|-11----------11-10-9-------9-----------------------------------------|
D|---------------------12-9---12-9-------------------------------------|
A|-----------------------------------------12-11-10-9------------------|
E|-------------------------------------------------------13-12~~-------|

- 05:10
e|------------------------------------------------------|
B|------------------------------------------------------|
G|------9-11-9----------9-11-9----------9-11-9----------|
D|-9-12--------12-9-12--------12-9-12---------12-9-12~--|
A|------------------------------------------------------|
E|------------------------------------------------------|

- 05:13
e|---------------10-----------------------------------------10~--------|
B|------10-11-13----13p12p11----------------------------12-------------|
G|---12----------------------12-14-12/11------------11-----------------|
D|12-------------------------------------14-12--14---------------------|
A|---------------------------------------------------------------------|
E|---------------------------------------------------------------------|

- 05:18			- 05:22
e|12p10-14p10(~)-(X8)|----15-15---------14-14----------15-15--17-17--|
B|-------------------|-12--------12-12---------12-12-----------------|
G|-------------------|-----------------------------------------------|
D|-------------------|-----------------------------------------------|
A|-------------------|-----------------------------------------------|
E|-------------------|-----------------------------------------------|


e|14-14---------------------------------------10~-|
B|-------15-15------------------------------------|
G|--------------16-16-12/14/11-12-14-12-11-11-----|
D|------------------------------------------------|
A|------------------------------------------------|
E|------------------------------------------------|

05:29
e|-12/14--17—12h13p12p11-12-----10--12--10--12--10--12--17-17--14-14---|
B|--------------------------12-----------------------------------------|
G|---------------------------------------------------------------------|
D|---------------------------------------------------------------------|
A|---------------------------------------------------------------------|
E|---------------------------------------------------------------------|

e|-------------------------14-15-17-15-14h15p14-------------------------|
B|-15-15----------------------------------------15----------------------|
G|--------16-16~--14-15-17-------------------------15-------------------|
D|----------------------------------------------------14h15p14-12-14-12-|
A|----------------------------------------------------------------------|
E|----------------------------------------------------------------------|
											-05:45
e|-------10~-12b13r12-12----10--10--------------------------14-14------|
B|-----------------------12--------12--10--12--------------------------|
G|-11-11--------------------------------------11p9---9-----------------|
D|------------------------------------------------12----12-------------|
A|---------------------------------------------------------------------|
E|---------------------------------------------------------------------|

e|-14--12--14/17-17--14-14-----12-14-17-14-12--------------------------|
B|--------------------------14----------------14-13-12-14/12-10-12-13~-|
G|---------------------------------------------------------------------|
D|---------------------------------------------------------------------|
A|---------------------------------------------------------------------|
E|---------------------------------------------------------------------|

e|-----------------10--12-11-10~---------------------------------------|
B|-10p8-----10/12~-----------------------------------------------------|
G|------9--------------------------------------------------------------|
D|---------------------------------------------------------------------|
A|---------------------------------------------------------------------|
E|---------------------------------------------------------------------|
- Fades out.

...And that’s it!



-Ifyhard





Comments


Popular Misc Computer Games tabs & chords
Assassins Creed Revelations Theme 1 Tabs
Blazblue - The Road To Hope Tabs
Castlevania - Bloody Tears Tabs
Diablo - Tristram Town Tabs
Donkey Kong Country 2 - Castle Krooks March Tabs
Doom 2 - Map 23 - Barrels O Fun Tabs
Everquest Theme Tabs
Final Fantasy 7 - Boss Battle Tabs
Sonic Heroes - Trailer Tabs
Zelda 64 Sarias Song Tabs


Song lyrics



↑ Back to top | Tablatures and chords are parodies/interpretations of the original songs. You may use it for private study, scholarship, research or language learning purposes only
© 2014 AZChords.com Contact us | Privacy policy | DMCA | Add/correct tabs | Request tabs | Top 50 tabs