>
 >
Chrono Cross - Reminiscence

Chrono Cross - Reminiscence Guitar Tabs

Misc Computer Games - Chrono Cross - Reminiscence chords, tabs, tablatures, lyrics

Guitar lessons | Add/correct | Request | Top 50 tabs Artists:  A B C D E F G H I J K L M N O P Q R S T U V W X Y Z 0-9

Chrono Cross - Reminiscence Guitar Tabs – Misc Computer Games

CD, Sheet music, Poster

Do you like Chrono Cross - Reminiscence? Share with your friends now
Tabs
-------------------------------------------------------------------------------
                             Reminiscence - Chrono Cross
-------------------------------------------------------------------------------
Tuning:Standard

I found this in gp3. format. I am going to tab it in text for anyone who
doesn't have Guitar Pro. I've also recieved request for this one too.


The timing for this tab is here


  0:01 - 0:14
e|---------1--1--0-------------1---0h1--3--1-----1--|
B|--1--3---3-----1---1--1--3---3-----------3---3----|
G|-----3-------------------3-----------------2------|
D|-------3---------3---------3-------------0--------|
A|-----1---------1---------1-----3------------------|
E|--------------------------------------------------|

  0:16 - 0:30
e|----0------------------------------------5--3-----1---1h3--5--3-----0--------|
B|------1--3-----1---1------6--5--6----6h8----4---4---4---------1---1-----1----|
G|--2------3---3-------3--5-------7-------------3-----------------0-----0---0--|
D|-----------3-----3------7-------7--7--------1--------------------------------|
A|---------1----------------------5-----------------------------3--------------|
E|------------------------5----------------------------------------------------|

  0:31 - 0:49
e|------0---1---3---5-----8--6-----3--5-----3------3--5-----8--6-----3--5-----5----3--5--|
B|------1---3---5---6---6----3---3----6---6---6--6----6---6----3---3----6---6---6--3-----|
G|----0---0---0---0---5--------3--------5---------------5--------3--------5--------------|
D|---------------------------3--------3------------------------3--------3----------------|
A|--3---------------8---------------------------------8----------------------------------|
E|---------------------------------------------------------------------------------0-----|

  0:50 - 1:04
e|--1-----1--3---0--1--1-----1--0---1--3--5-----8--6-----3--5-----3------3--5--|
B|--3---3------3-------1---1----1---------6---6----3---3----6---6---6--6----6--|
G|----2------------------0--------0---------5--------3--------5----------------|
D|--0----------------------------------------------3--------3------------------|
A|---------------------3--------3---------8---------------------------------8--|
E|-----------3-----------------------------------------------------------------|

   1:05 - 1:17
e|------8--6---6h8--10-----------------------0--------0----1-----3----|
B|----6----------------8------8----------6-----6--6-----6--1---1---3--|
G|--5--------7---------9----9------10--9---------------------2-----2--|
D|---------0-------------10-----10---------7--------7--------------3--|
A|---------------------------------------5--------4--------3-------2--|
E|---------------------8----------------------------------------------|

  1:20 - 1:32
e|----0--1-----1-----3h5----3-----0-------1-------1--------1--|
B|--3----3---3-----6-----6--1---1-----1---1-----1---1---1--1--|
G|---------2------------------0-----0---0-----3-------3----2--|
D|---------------0--------------------------3--------------3--|
A|-------1------------------3------------------------------3--|
E|----------------------------------------1----------------1--|

  1:35 - 1:46
e|---------1--1--0-------------1---0h1--3--1-----1--|
B|--1--3---3-----1---1--1--3---3-----------3---3----|
G|-----3-------------------3-----------------2------|
D|-------3---------3---------3-------------0--------|
A|-----1---------1---------1-----3------------------|
E|--------------------------------------------------|

  1:47 - 2:03
e|----0------------------------------------5--3-----1---1h3--5--3-----0--------|
B|------1--3-----1---1------6--5--6----6h8----4---4---4---------1---1-----1----|
G|--2------3---3-------3--5-------7-------------3-----------------0-----0---0--|
D|-----------3-----3------7-------7--7--------1--------------------------------|
A|---------1----------------------5-----------------------------3--------------|
E|------------------------5----------------------------------------------------|

  2:05 - 2:22
e|------0---1---3---5-----8--6-----3--5-----3------3--5-----8--6-----3--5-----5----3--5--|
B|------1---3---5---6---6----3---3----6---6---6--6----6---6----3---3----6---6---6--3-----|
G|----0---0---0---0---5--------3--------5---------------5--------3--------5--------------|
D|---------------------------3--------3------------------------3--------3----------------|
A|--3---------------8---------------------------------8----------------------------------|
E|---------------------------------------------------------------------------------0-----|

  2:23 - 2:37
e|--1-----1--3---0--1--1-----1--0---1--3--5-----8--6-----3--5-----3------3--5--|
B|--3---3------3-------1---1----1---------6---6----3---3----6---6---6--6----6--|
G|----2------------------0--------0---------5--------3--------5----------------|
D|--0----------------------------------------------3--------3------------------|
A|---------------------3--------3---------8---------------------------------8--|
E|-----------3-----------------------------------------------------------------|

   2:38 - 2:50
e|------8--6---6h8--10-----------------------0--------0----1-----3----|
B|----6----------------8------8----------6-----6--6-----6--1---1---3--|
G|--5--------7---------9----9------10--9---------------------2-----2--|
D|---------0-------------10-----10---------7--------7--------------3--|
A|---------------------------------------5--------4--------3-------2--|
E|---------------------8----------------------------------------------|


  2:53 - 3:05
e|----0--1-----1-----3h5----3-----0-------1-------1--------1--|
B|--3----3---3-----6-----6--1---1-----1---1-----1---1---1--1--|
G|---------2------------------0-----0---0-----3-------3----2--|
D|---------------0--------------------------3--------------3--|
A|-------1------------------3------------------------------3--|
E|----------------------------------------1----------------1--|

  
e|-----5-----8--6-----3--5-----3------3--5-----8--6-----3--5-----5----3--5--|
B|--1--6---6----3---3----6---6---6--6----6---6----3---3----6---6---6--3-----|
G|-------5--------3--------5---------------5--------3--------5--------------|
D|--------------3--------3------------------------3--------3----------------|
A|-----8---------------------------------8----------------------------------|
E|--------------------------------------------------------------------0-----|


e|--1-----1--3---0--1--1-----1--0---1--3--5-----8--6-----3--5-----3------3--5-----8--|
B|--3---3------3-------1---1----1---------6---6----3---3----6---6---6--6----6---6----|
G|----2------------------0--------0---------5--------3--------5---------------5------|
D|--0----------------------------------------------3--------3------------------------|
A|---------------------3--------3---------8---------------------------------8--------|
E|-----------3-----------------------------------------------------------------------|


e|--6---6h8--10------------------------0--------0----1-----3----|
B|--------------8------8-----------6-----6--6-----6--1---1---3--|
G|----7---------9----9------10--9----------------------2-----2--|
D|--0-------------10-----10----------7--------7--------------3--|
A|---------------------------------5--------4--------3-------2--|
E|--------------8-----------------------------------------------|


e|----0--1-----1-------3h5----3-----0-------1-------1--------1--|
B|--3----3---3-------6-----6--1---1-----1---1-----1---1---1--1--|
G|---------2--------------------0-----0---0-----3-------3----2--|
D|-----------------0--------------------------3--------------3--|
A|-------1-------1------------3------------------------------3--|
E|------------------------------------------1----------------1--|





| /  slide up
| \  slide down
| h  hammer-on
| p  pull-off
| ~  vibrato
| +  harmonic
| x  Mute note
===============================================================================





Comments


Popular Misc Computer Games tabs & chords
Final Fantasy - Melodies Of Life Chords
Angry Birds Tabs
Call Of Duty Black Ops - Mask Walk Tabs
Crash Bandicoot 2 - Dr Neo Cortex Tabs
Donkey Kong Jr Theme Tabs
Dragonball Z - We Gotta Power Opening Tabs
Dynasty Warriors 3 - Wu Zhang Plains Tabs
Farmville Theme 2 Tabs
Halo 2 Theme Tabs
Chrono Cross - Radical Dreamers Ukulele


Song lyrics



↑ Back to top | Tablatures and chords are parodies/interpretations of the original songs. You may use it for private study, scholarship, research or language learning purposes only
© 2014 AZChords.com Contact us | Privacy policy | DMCA | Add/correct tabs | Request tabs | Top 50 tabs