» » »

Misc Computer Games, Chrono Cross - Fragments Of Dreams Tabs (ver.1)

Artists:  A B C D E F G H I J K L M N O P Q R S T U V W X Y Z # 

Chrono Cross - Fragments Of Dreams Tabs (ver.1)

Misc Computer Games Tabs
Rating:
0/5 (0 votes)
Hard to play? Try these video lessons and learn fast.
                -------------------------------------------------------------------------------
                     Fragments of Dreams - Chrono Cross
-------------------------------------------------------------------------------
Tuning:Standard


This was originally in GP5. format. I'm transferring it to text for anyone who 
doesn't Guitar Pro. 

  0:03 - 0:14
e|--------2--3--5-----------------------------------------|
B|------------------5---3---2------2-----2-----3---2------|
G|------2-----------2---2---2---2------4-------4---2---2--|
D|----0---------------2---2---2------4-------4---4---4----|
A|----------------0----------------2-------2--------------|
E|--3-----------------------------------------------------|

  0:15 - 0:25
e|--------2--3--5-----------------0----------0---2-----3p2--------|
B|------------------5---3---2-----0-----0--------2---------5------|
G|------2-----------2---2---2---2-----0----0---0-----3---------3--|
D|----0---------------2---2---2-----2----2---------4---------4----|
A|----------------0-----------------------------------------------|
E|--3-----------------------------0--------------2----------------|

  0:26 - 0:37
e|--------2--3--5----------------------------------------0--2----|
B|------------------5---3---2------2-----2-------------3------3--|
G|------2-----------2---2---2---2------4-----4-----4-------------|
D|----0---------------2---2---2------4-----4-----4---4-----------|
A|----------------0----------------2-----------2-------0---------|
E|--3------------------------------------------------------------|

  0:38 - 0:48
e|-------------0--2--0---------0------------------------------------2--------|
B|--------3--3---------------2---3--2-------2----------0---2--0-----0-----0--|
G|------0------------------2--------------3-----3--3-------3--0---0-----0----|
D|----0------------------2--------------4-----4------4---4------0-----0------|
A|---------------------0-----------------------------------------------------|
E|--3---------------------------------2------------2----------3--------------|

  0:49 - 1:02
e|--0-----5--------2----------------------------------2--------0-----5--------|
B|--2-----2-----2--2-----2---2--3---2---3-------0-----0-----0--2-----2-----2--|
G|------2-----2--------2-----2--2---2---2---2---0---0-----0--------2-----2----|
D|----2-----2--------2-----2------4---4---4---4---0-----0--------2-----2------|
A|--0---------------------------2-------0----------------------0--------------|
E|-----------------2----------------------------3-----------------------------|

  1:03 - 1:19
e|--------9------7------------------2--------0-------------------------|
B|--7------------7---3--2-----0-----0-----0--2-----2------2---------2--|
G|--7---7-----7--7---2--2--2--0---0-----0--------2-----2--2-----2---2--|
D|----9-----9-------------------0-----0--------2-----2--------4---4----|
A|-------------------0--0--------------------0--------------4----------|
E|--7--------------7----------3---------------------------2------------|

  1:20 - 1:29
e|------------------------2--------0-----------------|
B|--3---2---3-------0-----0-----0--2-----3-----2--0--|
G|--2---2---2---2---0---0-----0--------2-----2----2--|
D|----4---4---4---4---0-----0--------2-----2------2--|
A|--2-------0----------------------0--------------2--|
E|------------------3--------------------------------|

Repeat Till Infinity.



| /  slide up
| \  slide down
| h  hammer-on
| p  pull-off
| ~  vibrato
| +  harmonic
| x  Mute note
===============================================================================
            

comments powered by Disqus
↑ Back to top | Misc Computer Games Tabs for Chrono Cross - Fragments Of Dreams. Lyrics for acoustic guitar and electric guitar. Tablatures and chords are parodies/interpretations of the original songs. You may use it for private study, scholarship, research or language learning purposes only