>
 >
Castlevania - Vampire Killer

Castlevania - Vampire Killer Guitar Tabs

Misc Computer Games - Castlevania - Vampire Killer chords, tabs, tablatures, lyrics

Guitar lessons | Add/correct | Request | Top 50 tabs Artists:  A B C D E F G H I J K L M N O P Q R S T U V W X Y Z 0-9

Castlevania - Vampire Killer Guitar Tabs – Misc Computer Games

CD, Sheet music, Poster

Do you like Castlevania - Vampire Killer? Share with your friends now
Tabs

Note: This is not the version of Vampire Killer heard in any of the games as far as I
this is a rock/metal version I found online, so please don't judge this based on the
version.  Email me if you'd like me to send you the song.  The solos aren't 100% 
but they're not too difficult to follow.  Any criticisms, suggestions, etc. are appreciated.

Intro
e|---------------------------------------------------------------------------|
B|---------------------------------------------------------------------------|
G|-7-5-4----------7------repeat-7-5-4----------5-7-9------------------------|
D|-7-5-4----------7-----twice---7-5-4----------5-7-9-------------------------|
A|-5-3-2----5-7-8-5-------------5-3-2----5-7-8-3-5-7------------------------|
E|------[PM......]---------------------[PM......]----------------------------|

Verse
e|---------------------------------------------------------------------------|
B|---------------------------------------------------------------------------|
G|---------------------------------------------------------------------------|
D|-77----------------77-55---------------55----------------------------------|
A|-5555555555555555--55-3333333333333333-33----------------------------------|
E|--[PM............]------[PM...........]------------------------------------|

Post-Verse
e|---------------------------------------------------------------------------|
B|---------------------------------------------------------------------------|
G|----------------------------First-Ending----------------Second-Ending------|
D|-7-----7\9/7------7/5\7-----7-7-7\9/7-----Repeat--------5-7-9-10-11--------|
A|-55555-5\7/55555--5/3\55555-5-5-5\7/5-----Prev-Riff-----3-5-7-8--9---------|
E|--[PM.]----[PM.]-------[PM.]--------------Except-1st-End-------------------|

Chorus
e|--------------------------------------Ending----------------------------------|
B|--------------------------------------(Only-played-first-two-times)-----------|
G|-7-5-7-----------555-----777--Repeat-----7------------------------------------|
D|-7-5-7-----------555-----777--Once-------7----Hold-chord----------------------|
A|-5-3-5--------33-333--55-555-------------5------------------------------------|
E|------5\12/5-[PM]-----[PM]----------------------------------------------------|

Organ Solo
e|---------------------------------------------------------------------------|
B|---------------------------------------------------------------------------|
G|--Keep--------------------77/----------------------------------------------|
D|--D-chord-----------------77/----------------------------------------------|
A|--From previous chorus----55/----------------------------------------------|
E|--Still held---------------------------------------------------------------|

Solo
e|------------------------------------------------------------------12-13-15-|
B|-------15b~--15-13-11------------------------------------11-13-15----------|
G|---------------------15-13-12--15b~-15p13p12b~--12-13-15-------------------|
D|---------------------------------------------------------------------------|
A|---------------------------------------------------------------------------|
E|5/12~----------------------------------------------------------------------|

e|15-13-12-------------------------------------------------------------------|
B|---------15-13-12----------------------------------------------------------|
G|------------------15-12-13-14~---17~--15~--13~--12~--12-13-15~-15-13-12~---|
D|---------------------------------------------------------------------------|
A|---------------------------------------------------------------------------|
E|---------------------------------------------------------------------------|

e|---------------------------------------------------------------------------|
B|--------------------------------------20b-20~~~-20-17-19b-19~~~17-19-20-21-|
G|15-13-12-------------------------------------------------------------------|
D|--------15-13-12----------16-13-15~~~--------------------------------------|
A|----------------16-13-14~--------------------------------------------------|
E|---------------------------------------------------------------------------|

e|--------22b-22b-22b-22b-22b-22b--22-20-22~-19-17-19b--19-17-16-------------|
B|p20p17---------------------------------------------------------19-17-15----|
G|------------------------------------------------------------------------19-|
D|---------------------------------------------------------------------------|
A|---------------------------------------------------------------------------|
E|---------------------------------------------------------------------------|

e|----------------------------------22b22b22b22b-19-20-22-20-19---------------------|
B|-------------------------------------------------------------22-20-19-20-22~~-----|
G|17-15-19b--19b-19-17-15-17-19~~~--------------------------------------------------|
D|----------------------------------------------------------------------------------|
A|----------------------------------------------------------------------------------|
E|----------------------------------------------------------------------------------|

Ending Solo
e|-10-8-7~~~9b-9-7-------------------10-8-7~~~------------------------10-8-7~~~-----|
B|-^Bend^----------9-10-10-9-10-12~~~^Bend^---9-10-12-15-17-17b-17~~~-^Bend^--------|
G|-^Notes^---------------------------^Notes^-------------------------^Notes^--------|
D|----------------------------------------------------------------------------------|
A|----------------------------------------------------------------------------------|
E|----------------------------------------------------------------------------------|

e|------------------------------10-8-7~~~--12b-12-13-15-15-16-18-18-19-21b-21-21~~~/|---|
B|12b-12-10-11-12b-12-10-8-10~~~^Bend^--------------------------------------------------|
G|------------------------------^Notes^-------------------------------------------------|
D|--------------------------------------------------------------------------------------|
A|--------------------------------------------------------------------------------------|
E|--------------------------------------------------------------------------------------|

Song Structure:
Intro Riff
Verse 2X
Post Verse W/First Ending
Post Verse W/Second Ending
Chorus
Verse 2X
Post Verse W/First Ending
Post Verse W/Second Ending
Chorus
Organ Solo
Guitar Solo
Verse 2X
Post Verse W/First Ending
Post Verse W/Second Ending
Chorus 4X Without Ending
Intro Riff
Ending Solo





Comments


Popular Misc Computer Games tabs & chords
Zelda 64 Zeldas Lullaby Chords
Ace Attorney Investigations Miles Edgeworth - Confrontation Presto 2009 Tabs
Age Of Empires - In Game Tabs
Cabal Online - Green Despair Theme Tabs
Final Fantasy 1 Tabs
Final Fantasy 8 - Timber Owls Tabs
Legend Of Zelda - Zeldas Lullaby Tabs
Sonic Adventure 2 - Green Forest Stage Tabs
Super Mario Brothers (Intro) Tabs
Super Mario Underworld Theme Tabs


Song lyrics



↑ Back to top | Tablatures and chords are parodies/interpretations of the original songs. You may use it for private study, scholarship, research or language learning purposes only
© 2014 AZChords.com Contact us | Privacy policy | DMCA | Add/correct tabs | Request tabs | Top 50 tabs