» » »

Misc Computer Games, Castlevania - Stage Tabs (ver.3)

Artists:  A B C D E F G H I J K L M N O P Q R S T U V W X Y Z # 

Castlevania - Stage Tabs (ver.3)

Misc Computer Games Tabs
 Rating:
4/5 (4 votes)
Castlevania - Stage lessons Tabs too difficult? Try these video lessons and learn fast
                "(3)






Lead Part:

e---------------------------------|----12---11---10---9-|----------------------|
B---------------------------------|---------------------|----------------------|
G-10-10-10-9-10-12--10-10-10-9-10-|---------------------|----------------------|
D---------------------------------|---------------------|----------------------|
A---------------------------------|-x2------------------|-x2-------------------|
E---------------------------------|---------------------|----------------------|


e------------------------------------------------------------------|-----------|
B-----------------------------------------------------13-------13--|-----------|
G-14-13-14-13-14--------14--14-13-14---------14--------------------|-----------|
D-----------------12-15--------------12-15------12-15----12-15-----|-----------|
A------------------------------------------------------------------|-x2--------|
E------------------------------------------------------------------|-----------|


e-13-12--12----------------12---------------------------------10---------------|
B-----------13----13----------13----13---------------10----10----------10------|
G--------------12----12----------12----12---------10----10----------10----10---|
D-----------------------14----------------14---12----------------12------------|
A------------------------------------------------------------------------------|
E------------------------------------------------------------------------------|


e----10-|--------------13-15-17-------------12-13-15-----------10-12-13--------|
B-10----|----------------------------------------------------------------------|
G-------|---10--12--14-----------9--10--12------------7--9--10-----------------|
D-------|----------------------------------------------------------------------|
A-------|x2--------------------------------------------------------------------|
E-------|----------------------------------------------------------------------|


e-9-10-12-|---12--13--15-------------------------------------------------------|
B---------|--------------------------------------------------------------------|
G---------|--------------------------------------------------------------------|
D---------|--------------------------------------------------------------------|
A---------|x2------------------------------------------------------------------|
E---------|--------------------------------------------------------------------|


Harmony Part:


e-----------------------------------------------------------|------------------|
B-----------------------------------------------------------|------------------|
G------7-------------------------7--------------------------|------------------|
D-7-10----7-7-7-7-7-7--7-7-7-7-----10-8--8-8-8-8-8--8-8-8-8-|------------------|
A-----------------------------------------------------------|-x2---------------|
E-----------------------------------------------------------|------------------|


e-------------------------------------------------|----------------------------|
B-13--12--11--10-----------13--12--11--10---------|----------------------------|
G----------------------7--------------------------|----------------------------|
D-----------------7-10--------------------7-10----|----------------------------|
A----------------------------------------------10-|-x2-------------------------|
E-------------------------------------------------|----------------------------|


e--------------------------------------------------------------------------|----|
B--------------------------------------------------------------------------|----|
G----------------------10---------------------10-------10-------10---------|----|
D-12-12-12-12-12----12------12-12-12-----12---------12-------12----------11|----|
A----------------12-------------------12---------13-------13-------13-15--------|x2
E--------------------------------------------------------------------------|----|


e-13-12--12----------------12---------------------------------10---------------|
B-----------13----13----------13----13---------------10----10----------10------|
G--------------12----12----------12----12---------10----10----------10----10---|
D-----------------------14----------------14---12----------------12------------|
A------------------------------------------------------------------------------|
E------------------------------------------------------------------------------|

e----10-|----------------------------------------------------------------------|
B-10----|----------------------------------------------------------------------|
G-------|----------------------------------------------------------------------|
D-------|----------------------------------------------------------------------|
A-------|-X2-------------------------------------------------------------------|
E-------|----------------------------------------------------------------------|


e-----------------------------------------------------------------------|------|
B------------15-17-18------------13-15-17------------11-13-15-----------|------|
G-----------------------------------------------------------------------|------|
D-12--14--15----------10--12--14-----------8--10--12-----------7--9--11-|------|
A-----------------------------------------------------------------------|x2----|
E-----------------------------------------------------------------------|------|


e------------------------------------------------------------------------------|
B------------------------------------------------------------------------------|
G------------------------------------------------------------------------------|
D-11-12-14---------------------------------------------------------------------|
A------------------------------------------------------------------------------|
E------------------------------------------------------------------------------|
"            
Submit corrections

comments powered by Disqus
↑ Back to top | Misc Computer Games Tabs for Castlevania - Stage. Lyrics for acoustic guitar and electric guitar. Tablatures and chords are parodies/interpretations of the original songs. You may use it for private study, scholarship, research or language learning purposes only