» » »

Battletoads In Battlemaniacs - Bonus Level Tabs (ver.1)

Artists:  A B C D E F G H I J K L M N O P Q R S T U V W X Y Z # 

Battletoads In Battlemaniacs - Bonus Level Tabs (ver.1)

Misc Computer Games
Rating:
0/5 (0 votes)

Hard to play? Try these video lessons and learn fast.
                "(1)
Battletoads in battlemaniacs

bonus level 1

e|---------------|
b|---------------|
g|-------------0-|
d|-------------0-|
a|-1-1---0-0-----|
d|-1-1---0-0-----|

e|-----------------3-3-1-| 
b|-----------------3-3-1-| 
g|-----------------------| 
d|-----------------------| 
a|---------1-------------| 
D|-0-3-4/5---5-3-5-------| 
or in standrad tuning
e|-----------------3-3-1-| 
b|-----------------3-3-1-| 
g|---------3-------------| 
d|-0-3-4/5---5-3-5-------| 
a|-----------------------| 
E|-----------------------| 

|----------------------------------------------| 
|----------------------------------------------| 
|----------------------------------------------| 
|-3-3-3-2-2-3----3--3-2-2----------------------| 
|-------------5-----------3-3------------------| 
|----------------------------------------------| 

|----------------------------------------|--15-13-------13----------| 
|-8-10-11-10-8------8-10-11-10-11--------|--------15-13----15-------| 
|--------------10------------------------|--------------------------| 
|----------------------------------------|----------------------X2--| 
|----------------------------------------|--------------------------| 
|----------------------------------------|--------------------------| 

i dont know bonus level 2... never got so far    :]
"            
Hard to play? Try these video lessons and learn fast. | Correct




comments powered by Disqus
↑ Back to top | Tablatures and chords are parodies/interpretations of the original songs. You may use it for private study, scholarship, research or language learning purposes only