>
 >
Banjo Kazooie - Treasure Trove Cove

Banjo Kazooie - Treasure Trove Cove Guitar Tabs

Misc Computer Games - Banjo Kazooie - Treasure Trove Cove chords, tabs, tablatures, lyrics

Guitar lessons | Add/correct | Request | Top 50 tabs Artists:  A B C D E F G H I J K L M N O P Q R S T U V W X Y Z 0-9

Banjo Kazooie - Treasure Trove Cove Guitar Tabs – Misc Computer Games

CD, Sheet music, Poster

Do you like Banjo Kazooie - Treasure Trove Cove? Share with your friends now
Tabs
BANJO KAZOOIE - TREASURE TROVE COVE

Gtr I (E A D G B E) - 'Untitled'

 4/4
  Gtr I
  E  S   S  S  S   E  E  S   S  E  E
|--------0---------0--2--0------0--2--|
|----2---------2-------------2--------|
|-2-----------------------------------|
|-------------------------------------|
|-0-(0)-(0)-----------0-(0)-(0)-------|
|-----------0-(0)-(0)-----------0-(0)-|

  E  S  S S  S   E  E  E  E  E    E  S   S  S  S   E  E  S   S  E  E
|-1--3--5----3------0-----------|--------0---------0--2--0------0--2--|
|----------------6-----2-----2--|----2---------2-------------2--------|
|-------------------------------|-2-----------------------------------|
|-------------------------------|-------------------------------------|
|---------3-(3)-(3)-0-(0)-------|-0-(0)-(0)-----------0-(0)-(0)-------|
|-1-(1)-------------------0-(0)-|-----------0-(0)-(0)-----------0-(0)-|

  E  S  S S  S   E   E  E  Q    E  S   S  S  S   E  E  S   S  E  E
|-1--3--5----3------/9--5-----|--------0---------0--2--0------0--2--|
|----------------6------------|----2---------2-------------2--------|
|-----------------------------|-2-----------------------------------|
|-----------------------------|-------------------------------------|
|---------3-(3)-(3)--0-(0)----|-0-(0)-(0)-----------0-(0)-(0)-------|
|-1-(1)--------------------0--|-----------0-(0)-(0)-----------0-(0)-|

  E  S  S S  S   E  E  E  E  E
|-1--3--5----3------0-------------|
|----------------6-----2-----2----|
|---------------------------------|
|---------------------------------|
|---------3-(3)-(3)-0-(0)---------|
|-1-(1)-------------------0-(0)---|

  E  S   S  S  S   E  E  S   S  E  E    E  S   S  S  S   E  E +E  Q
|--------0---------0--2--0------0--2--|-1--3---4-----2---0--5--------|
|----2---------2-------------2--------|------------------------------|
|-2-----------------------------------|------------------------------|
|-------------------------------------|------------------------------|
|-0-(0)-(0)-----------0-(0)-(0)-------|-1-(1)-(1)-----------0-(0)----|
|-----------0-(0)-(0)-----------0-(0)-|-----------0-(0)-(0)-------0--|

  E  S   S  +S   S   E   E   S    S   +S    S    E
|--------3------------------------8-----------------|
|-4--6-----------6---4---9--11-------------11----9--|
|---------------------------------------------------|
|-5-(5)-(5)-(5)-(5)-(5)-10-(10)-(10)-(10)-(10)-(10)-|
|---------------------------------------------------|
|---------------------------------------------------|

  E  S   S  +S   S   E  E  S   S  +S   S   E
|--------2---------------------7--------------|
|-3--5-----------5---3--8-10----------10---8--|
|---------------------------------------------|
|-4-(4)-(4)-(4)-(4)-(4)-9-(9)-(9)-(9)-(9)-(9)-|
|---------------------------------------------|
|---------------------------------------------|

  E  S   S  +S   S   E  E  S   S  +S   S   E    E  S   S  S  S   E  E  S   S
|--------0---------------------5--------------|--------------2---4--4--3---4--|
|-1--3-----------3---1--6--8-----------8---6--|-5--4---5----------------------|
|---------------------------------------------|-------------------------------|
|-2-(2)-(2)-(2)-(2)-(2)-7-(7)-(7)-(7)-(7)-(7)-|-------------------------------|
|---------------------------------------------|-----------2-(2)-(2)-----------|
|---------------------------------------------|-0-(0)-(0)-----------0-(0)-(0)-|

  S  S  E   E  S   S  S  S   E  E  S   S  E  E
|----5--7-|-5------0---------0--2--0------0--2--|
|---------|-2--2---------2-------------2--------|
|---------|-------------------------------------|
|---------|-------------------------------------|
|-2-(2)---|-0-(0)-(0)-----------0-(0)-(0)-------|
|---------|-----------0-(0)-(0)-----------0-(0)-|

  E  S  S S  S   E  E  E  E  E    E  S   S  S  S   E  E  S   S  E  E
|-1--3--5----3------0-----------|--------0---------0--2--0------0--2---|
|----------------6-----2-----2--|----2---------2-------------2---------|
|-------------------------------|-2------------------------------------|
|-------------------------------|--------------------------------------|
|---------3-(3)-(3)-0-(0)-------|-0-(0)-(0)-----------0-(0)-(0)--------|
|-1-(1)-------------------0-(0)-|-----------0-(0)-(0)-----------0-(0)--|

  E  S  S S  S   E   E  E  Q    E  S   S  S  S   E  E  S   S  E  E
|-1--3--5----3------/9--5-----|--------0---------0--2--0------0--2--|
|----------------6------------|----2---------2-------------2--------|
|-----------------------------|-2-----------------------------------|
|-----------------------------|-------------------------------------|
|---------3-(3)-(3)--0-(0)----|-0-(0)-(0)-----------0-(0)-(0)-------|
|-1-(1)--------------------0--|-----------0-(0)-(0)-----------0-(0)-|

  E  S  S S  S   E  E  E  E  E
|-1--3--5----3------0-------------|
|----------------6-----2-----2----|
|---------------------------------|
|---------------------------------|
|---------3-(3)-(3)-0-(0)---------|
|-1-(1)-------------------0-(0)---|

  E  S   S  S  S   E  E  S   S  E  E    E  S   S  S  S   E  E +E  Q
|--------0---------0--2--0------0--2--|-1--3---4-----2---0--5-------|
|----2---------2-------------2--------|-----------------------------|
|-2-----------------------------------|-----------------------------|
|-------------------------------------|-----------------------------|
|-0-(0)-(0)-----------0-(0)-(0)-------|-1-(1)-(1)-----------0-(0)---|
|-----------0-(0)-(0)-----------0-(0)-|-----------0-(0)-(0)-------0-|

  E +S   S   E   E  S  S   S   S   E   E
|--------1---3---1--------------------------|
|-4-----------------4--3---4---3---4--------|
|--------------------------------------3----|
|-1-(1)-(1)-(1)-(1)-1-(1)-(1)-(1)-(1)-(1)---|
|-------------------------------------------|
|-------------------------------------------|

  E +S   S   E   S   S  E +E  Q   E +S   S   E   S   S  E  E  Q
|-------------------------------|-------------------------------|
|-0------2---4---2---0----------|------------1-------------4----|
|-----------------------3-------|-1------3-------3---1--3-------|
|-----------------------1-(1)---|-----------------------1-(1)-1-|
|-2-(2)-(2)-(2)-(2)-(2)-------1-|-------------------------------|
|-------------------------------|-4-(4)-(4)-(4)-(4)-(4)---------|

  E +S   S   E   S   S  E +E  Q
|----------------------------------|
|----------------------------------|
|-----------------------3----------|
|-3------3---3---2---3-------------|
|-----------------------1-(1)------|
|-1-(1)-(1)-(1)-(1)-(1)-------1----|

  E +S   S   E   E  S  S   S   S   E   E
|--------1---3---1------------------------|
|-4-----------------4--3---4---3---4------|
|--------------------------------------3--|
|-1-(1)-(1)-(1)-(1)-1-(1)-(1)-(1)-(1)-(1)-|
|-----------------------------------------|
|-----------------------------------------|

  E +S   S   E   E  S  S   S   S  E +E    E +S   S   E   E  E  E   E   E
|----------------0--5--4---5---7--5-----|-6------8---6-------------4---7----|
|--------0---2--------------------------|----------------6--5--7------------|
|-2-------------------------------------|-----------------------------------|
|---------------------------------------|-----------------------------------|
|-0-(0)-(0)-(0)-(0)-0-(0)-(0)-(0)-------|-----------------------------------|
|---------------------------------0-(0)-|-6-(6)-(6)-(6)-(6)-0-(0)-(0)-(0)---|

     |---3---|
  E  S   S   S  E E E +E  Q    E +S   S   E   E  S  S   S   S   E   E
|-5--------------------------|--------1---3---1------------------------|
|----5---4---5--6-5----------|-4-----------------4--3---4---3---4------|
|-------------------2--------|--------------------------------------3--|
|-------------------------2--|-1-(1)-(1)-(1)-(1)-1-(1)-(1)-(1)-(1)-(1)-|
|-0-(0)-(0)-(0)-----0-(0)----|-----------------------------------------|
|----------------------------|-----------------------------------------|

  E +S   S   E   S   S  E +E  Q
|----------------------------------|
|-0------2---4---2---0-------------|
|-----------------------3----------|
|-----------------------1-(1)------|
|-2-(2)-(2)-(2)-(2)-(2)-------1----|
|----------------------------------|

  E +S   S   E   S   S  E  E  Q    E +S   S   E   S   S  E +E  Q
|--------------------------------|--------------------------------|
|------------1-------------4-----|--------------------------------|
|-1------3-------3---1--3--------|-----------------------3--------|
|-----------------------1-(1)-1--|-3------3---3---2---3-----------|
|--------------------------------|-----------------------1-(1)----|
|-4-(4)-(4)-(4)-(4)-(4)----------|-1-(1)-(1)-(1)-(1)-(1)-------1--|

  E +S   S   E   E  S  S   S   S   E   E
|--------1---3---1--------------------------|
|-4-----------------4--3---4---3---4--------|
|--------------------------------------3----|
|-1-(1)-(1)-(1)-(1)-1-(1)-(1)-(1)-(1)-(1)---|
|-------------------------------------------|
|-------------------------------------------|

  E.  S  E  E  Q  E  E    E.  S  E  E  E  E  E  E
|--------1--3-----------|-----------------------1--|
|-0---3--------4--------|--------1-----1-----1-----|
|--------------------3--|-2---3-----2-----2--------|
|-----------------------|--------------------------|
|--------2-(2)-3--------|--------3-(3)-------3-(3)-|
|-3--(3)----------3-(3)-|-1--(1)-------1-(1)-------|

  E.  S  E  E  E  E  E  E    E  S   S  +S   S   E   E   S    S   +S    S    E
|--------------4--4--3--1--|--------3------------------------8-----------------|
|-----1--3-----------------|-4--6-----------6---4---9--11-------------11----9--|
|-3---------3--------------|---------------------------------------------------|
|--------------------------|-5-(5)-(5)-(5)-(5)-(5)-10-(10)-(10)-(10)-(10)-(10)-|
|-1--(1)-------1-(1)-------|---------------------------------------------------|
|--------1-(1)-------1-(1)-|---------------------------------------------------|

  E  S   S  +S   S   E  E  S   S  +S   S   E
|--------2---------------------7--------------|
|-3--5-----------5---3--8-10----------10---8--|
|---------------------------------------------|
|-4-(4)-(4)-(4)-(4)-(4)-9-(9)-(9)-(9)-(9)-(9)-|
|---------------------------------------------|
|---------------------------------------------|

  E  S   S  +S   S   E  E  S   S  +S   S   E    E  S   S  S  S   E  E  S   S
|--------0---------------------5--------------|--------------2---4--4--3---4--|
|-1--3-----------3---1--6--8-----------8---6--|-5--4---5----------------------|
|---------------------------------------------|-------------------------------|
|-2-(2)-(2)-(2)-(2)-(2)-7-(7)-(7)-(7)-(7)-(7)-|-------------------------------|
|---------------------------------------------|-----------2-(2)-(2)-----------|
|---------------------------------------------|-0-(0)-(0)-----------0-(0)-(0)-|

  S  S  E   E S S S S E E S S E E
|----5--7-|-5---------------------|
|---------|-----5-----5-7-5---5-7-|
|---------|---6-6---6-6-6-6-6-6-6-|
|---------|-7-7-----7-------7-----|
|-2-(2)---|-7---------------------|
|---------|-----------------------|

  E S S S S E E E E E   E S S S S E E S S E E
|-----5---------------|------------------------|
|-6-8-6---8-6-5-------|-----5-----5-7-5---5-7--|
|-5-7-----7-5-6-6---6-|---6-6---6-6-6-6-6-6-6--|
|---------------7---7-|-7-7-----7-------7------|
|---------------------|-7----------------------|
|---------------------|------------------------|

  E S S S S E   E  E Q    E S S S S E E S S E E   E S S S S E E E E E
|-----5--------/9-------|-----------------------|-----5-----------------|
|-6-8-6---8-6-/10-10----|-----5-----5-7-5---5-7-|-6-8-6---8-6-5---------|
|-5-7-----7-5------9----|---6-6---6-6-6-6-6-6-6-|-5-7-----7-5-6-6---6---|
|-----------------------|-7-7-----7-------7-----|---------------7---7---|
|-----------------------|-7---------------------|-----------------------|
|-----------------------|-----------------------|-----------------------|

  E S S S S E E S S E E   E S S S S E E Q.    E E E E E E E E
|-----------------------|-------------5-----|---0---0---0---0----|
|-----5-----5-7-5---5-7-|-6-8-9---7-5-------|---2---2---2---2----|
|---6-6---6-6-6-6-6-6-6-|-7-8-9---9-7-6-----|---2---2---2---2----|
|-7-7-----7-------7-----|-------------------|-----2---2----------|
|-7---------------------|-------------------|-0-----------0------|
|-----------------------|-------------------|--------------------|

  E E E E E E E E   E E E E E E E E
|---3---3---3---3-|---0---0---0---0-|
|---4---4---4---4-|---2---2---2---2-|
|-----0-----------|---2---2---2---2-|
|-1-3---3-1-------|-----2---2-------|
|-------------1---|-0-----------0---|
|-----------------|-----------------|

  E S  S  E E E S  S  E E   E E E E E E E E
|---3-(3)---3---3-(3)---3-|---0---0---0---0-|
|---0-(0)---0---0-(0)---0-|---2---2---2---2-|
|-0----2--0---0----2--0---|---2---2---2---2-|
|-----------1-----------1-|-----2---2-------|
|-------------------------|-0-----------0---|
|-------------------------|-----------------|

  E E E E E E E E   E E E E E E E S  S    E E E E E E E E
|---3---3---3---3-|---0---0---1---1-(1)-|---0---0---0---0-|
|---4---4---4---4-|---2---2---3---3-(3)-|---2---2---2---2-|
|-----0-----------|------------------3--|-2---------------|
|-1-3---3-1-------|-----2---3---3-------|-----------------|
|-------------1---|-0-------------------|-----0---0-------|
|-----------------|---------------------|-----------------|

  E  S   S  +S   S   E   E   S    S   +S    S    E
|--------3------------------------8------------------|
|-4--6-----------6---4---9--11-------------11----9---|
|----------------------------------------------------|
|-5-(5)-(5)-(5)-(5)-(5)-10-(10)-(10)-(10)-(10)-(10)--|
|----------------------------------------------------|
|----------------------------------------------------|

  E  S   S  +S   S   E  E  S   S  +S   S   E
|--------2---------------------7--------------|
|-3--5-----------5---3--8-10----------10---8--|
|---------------------------------------------|
|-4-(4)-(4)-(4)-(4)-(4)-9-(9)-(9)-(9)-(9)-(9)-|
|---------------------------------------------|
|---------------------------------------------|

  E  S   S  +S   S   E  E  S   S  +S   S   E    E  S   S  S  S   E  E  S   S  S  S  E
|--------0---------------------5--------------|--------------2---4--4--3---4-----5--7--|
|-1--3-----------3---1--6--8-----------8---6--|-5--4---5-------------------------------|
|---------------------------------------------|----------------------------------------|
|-2-(2)-(2)-(2)-(2)-(2)-7-(7)-(7)-(7)-(7)-(7)-|----------------------------------------|
|---------------------------------------------|-----------2-(2)-(2)-----------2-(2)----|
|---------------------------------------------|-0-(0)-(0)-----------0-(0)-(0)----------|

  E E E E E E E E
|-5----------------||----|
|---2---2---2---2-o||----|
|---2---2---2---2--||----|
|------------------||----|
|-0-------0-------o||----|
|-----0-------0----||----|





Comments


Popular Misc Computer Games tabs & chords
Chash Bandicoot 3 Theme Bass Tabs
Chrono Trigger - Secret Of The Forest Bass Tabs
Advance Wars 2 - Samis Theme Tabs
Call Of Duty Black Ops - Rebirth Island Mask Walk Tabs
Chrono Cross - End Theme Tabs
Chrono Cross - Nikkis Concert Tabs
Donkey Kong Country - Temple Tempest Tabs
Doom - Hanger Tabs
Dragonball Z - We Gotta Power Opening Tabs
Bioshock Infinite - Will The Circle Be Unbroken Ukulele


Song lyrics



↑ Back to top | Tablatures and chords are parodies/interpretations of the original songs. You may use it for private study, scholarship, research or language learning purposes only
© 2014 AZChords.com Contact us | Privacy policy | DMCA | Add/correct tabs | Request tabs | Top 50 tabs