>
 >
Banjo Kazooie - Gruntildas Lair

Banjo Kazooie - Gruntildas Lair Guitar Tabs

Misc Computer Games - Banjo Kazooie - Gruntildas Lair chords, tabs, tablatures, lyrics

Guitar lessons | Add/correct | Request | Top 50 tabs Artists:  A B C D E F G H I J K L M N O P Q R S T U V W X Y Z 0-9

Banjo Kazooie - Gruntildas Lair Guitar Tabs – Misc Computer Games

CD, Sheet music, Poster

Do you like Banjo Kazooie - Gruntildas Lair? Share with your friends now
Tabs
Gruntilda's Lair
Banjo-Kazooie
EADGBe


quick note, I did NOT tab out all of the parts where the same thing is repeated but just 
different instruments, I just did all of the main parts and arranged them for guitar. 
hope you enjoy, I'm positive it's 100%, I double checked by playing along multiple times ^.^


|-------------------------------------------------------------------------------------|
|-------------------------------------------------------------------------------------|
|-----------------------------------------------------------------3-5--3--------------|
|-----------------------5-6--5--------------------------5-3-5-3-------------5-3-5-3---|
|---------3--6-5-6-5-3---------3--6-5-6-5-3--1--h3h5-6----------6--------6----------6-|
|-3--h5h7-----------------------------------------------------------------------------|

|------------------------------------------------------------------|
|-------------------3-4--3-2---------------------------------------|
|--------1-0-1-3-5------------5-3---------4--7----3-5-3----------5-|
|-1h2h3----------------------------6-5--7------6--------6-3--5-6---|
|------------------------------------------------------------------|
|------------------------------------------------------------------|

-------------------6-4-3-1-1-1-1--5------------1-1-1-1--5----2~-|
-------4---4-7-4-7------------------3--2-3-2-0------------3-----|
-5---5---5------------------------------------------------------|
---5------------------------------------------------------------|

|-------------------------------------------------------------------|
|-1-1-1-1--5----------------------------------1-1-1-1--5------------|
|------------3--2-3-2-0----0-1-0---0---0-1--0------------3--2-3-2-0-|
|-----------------------3--------3---4------------------------------|
|-------------------------------------------------------------------|
|-------------------------------------------------------------------|

-----------------------------------------------------|
-1-1-1-1--5----2~-1-1-1-1--5-------------------------|
------------3----------------3--2-3-2-0-0-1-0--------|
----------------------------------------------4--1---|
---------------------------------------------------3-|
-----------------------------------------------------|

now I'll just put an octave higher for fun, and since in the song it jumps up and down 
on multiple instruments anyways, what could it hurt?

|-----------------------3-4--3------------------------------------6-8--6--------------|
|---------1--4-3-4-3-1---------1--4-3-4-3-1----------4--8-6-8-6-4--------4--8-6-8-6-4-|
|-0--h2h4------------------------------------3--h5h7----------------------------------|
|-------------------------------------------------------------------------------------|
|-------------------------------------------------------------------------------------|
|-------------------------------------------------------------------------------------|

|--------4-3-4-6-8--10-11--10-9--8-6----------7--10----6-8-6----------8-|
|-4h5h6-------------------------------9-8--10-------9--------9-6--8-9---|
|-----------------------------------------------------------------------|
|-----------------------------------------------------------------------|
|-----------------------------------------------------------------------|
|-----------------------------------------------------------------------|

-------7---7-10-7-10-13-11-10-8-8-8-8--12----------------8-8-8-8--12-----9~-|
-8---8---8--------------------------------11--10-11-10-8-------------11-----|
---7------------------------------------------------------------------------|

|-8-8-8-8--12-----------------------------------------8-8-8-8--12----------------|
|-------------11--10-11-10-8----8-9-8----8----8-9--8--------------11--10-11-10-8-|
|----------------------------10-------10---11------------------------------------|
|--------------------------------------------------------------------------------|
|--------------------------------------------------------------------------------|
|--------------------------------------------------------------------------------|

-8-8-8-8--12-----9~-8-8-8-8--12-------------------------------|
-------------11-----------------11--10-11-10-8-8-9-8----------|
-----------------------------------------------------11--8----|
-----------------------------------------------------------10-|
--------------------------------------------------------------|
--------------------------------------------------------------|


| /  slide up
| \  slide down
| h  hammer-on
| p  pull-off
| ~  vibrato
| +  harmonic
| x  mute note
| ^  bend





Comments


Popular Misc Computer Games tabs & chords
Earthbound - Onett Bass Tabs
Zelda 64 Eponas Song Chords
Adventure Island - Level 1 Tabs
Another World Theme Tabs
Chrono Trigger - Secret Of The Forest 1 Tabs
Diablo - Tristram Town (Intro) Tabs
Dynasty Warriors - Chibi Intro Tabs
Earthbound Zero - Eight Melodies Tabs
Final Fantasy 7 - City Of The Ancients (Intro) Tabs
Legend Of Zelda - Zeldas Lullaby Tabs


Song lyrics



↑ Back to top | Tablatures and chords are parodies/interpretations of the original songs. You may use it for private study, scholarship, research or language learning purposes only
© 2014 AZChords.com Contact us | Privacy policy | DMCA | Add/correct tabs | Request tabs | Top 50 tabs