>
 >
Banjo Kazooie - Gobis Valley

Banjo Kazooie - Gobis Valley Guitar Tabs

Misc Computer Games - Banjo Kazooie - Gobis Valley chords, tabs, tablatures, lyrics

Guitar lessons | Add/correct | Request | Top 50 tabs Artists:  A B C D E F G H I J K L M N O P Q R S T U V W X Y Z 0-9

Banjo Kazooie - Gobis Valley Guitar Tabs – Misc Computer Games

CD, Sheet music, Poster

Do you like Banjo Kazooie - Gobis Valley? Share with your friends now
Tabs
Intro's kinda......mehh
Sorry for that :/
I'm open to suggestions, corrections, and if anyone has a request for a tab, feel 
free to message me xP

e|-------------------------------------------------------------------------|
B|-------------------------------------------------------------------------|
G|-----------------------------------7--------7----------------------------|
D|------------------------------------7--7-----7--7------------------------|
A|--13-12--------------------------5---5----5---5----(repeat)--------------|
E|--------13-12-10h12p10---6-5---------------------------------------------|

e|----8-7-7-------------------------------8-7-7------------------------7-7-|
B|-----------9-9-8-8--8-9-8-9-8--9-8--8/9-------9-9-8-8--6-8-6-8-6-8--8-8-8|
G|-------------------------------------------------------------------------|
D|-------------------------------------------------------------------------|
A|-------------------------------------------------------------------------|
E|-------------------------------------------------------------------------|

e|7-8-7-7-----------------------0------------------------------------------|
B|--------9-9-8-8---6--2--2h5p2-1------------------------------------------|
G|------------------------------0--------5-------5-------------------------|
D|----------------------------------------5--5----5--5---------------------|
A|--------------------------------------3--3----3--3-----------------------|
E|-------------------------------------------------------------------------|

e|-------------------------------------------------------------------------|
B|-------------------------------------------------------------------------|
G|--5-4-4------------------------------5-4-4-------------------------4-4-4-|
D|--------6-6-5-5--5-6-5-6-5--6-5--5/6-------6-6-5-5--3-5-3-5-3--5--5-5-5--|
A|-------------------------------------------------------------------------|
E|-------------------------------------------------------------------------|

e|-------------------------------------------------------------------------|
B|-------------------------------------------------------------------------|
G|--5-4-4------------------------------------------------------------------|
D|--------6-6-5-5---3---3--2--------------------------5-5---4-4---5-5---4-4|
A|--------------------4--4-3-----4h5p4--4-6-8--6-4--3-----3-----3-----3----|
E|-------------------------------------------------------------------------|

e|-------------------------------------------------------------------------|
B|-------------------------------------------------------------------------|
G|-------------------------------------------------------------------------|
D|--------------------------------------------------5-5---4-4---5-5---4-4--|
A|-4h5p4--4-6-8--6-4--3-2------4h5p4--4-6-8--6-4--3-----3-----3-----3------|
E|------------------------4-3----------------------------------------------|

e|-------------------------------------------------------------------------|
B|-------------------------------------------------------------------------|
G|-------------------------------------------------------------------------|
D|-------------------------------------------------------------------------|
A|-4h5p4-4-6-8--6-4-3--3-5-7--5-3--1-3-5-------------2-3-2-------2-3-2----2|
E|---------------------------------------4-6-8---3-4-------4-3-4-------4-3-|

e|----8-7-7-------------------------------8-7-7------------------------7-7-|
B|-----------9-9-8-8--8-9-8-9-8--9-8--8/9-------9-9-8-8--6-8-6-8-6-8--8-8-8|
G|-------------------------------------------------------------------------|
D|-------------------------------------------------------------------------|
A|-------------------------------------------------------------------------|
E|-------------------------------------------------------------------------|

e|7-8-7-7---------------0-----5-4-5-4-5-----5-4-5-4-5------76-676-676-676-6|
B|--------9-9-8-8--6--2-1----------------5-------------5-----7---7---7---7-|
G|----------------------0--------------------------------------------------|
D|-------------------------------------------------------------------------|
A|-------------------------------------------------------------------------|
E|-------------------------------------------------------------------------|

e|--5-4-5-4-5----5-4-5-4-5-----7-8-7-6-7-8-9-10-------5-4-5-4-5-----5-4-5-4|
B|-------------5------------5------------------------------------5---------|
G|-------------------------------------------------------------------------|
D|-------------------------------------------------------------------------|
A|-------------------------------------------------------------------------|
E|-------------------------------------------------------------------------|

e|-5----76-676-676-676-6---5-4-5-4-5-----5-4-5-4-5------3--5-7-5-3-3-5-7-8-|
B|---5----7---7---7---7---------------5-------------5----------------------|
G|-------------------------------------------------------------------------|
D|-------------------------------------------------------------------------|
A|-------------------------------------------------------------------------|
E|-------------------------------------------------------------------------|

e|--8-10-12--10-8-13--8----------7--8-7-7-----------------------------8-7-7|
B|----------------------9-8----8----------9-9-8-8--8-9-8-9-8--9-8---9------|
G|---------------------------9---------------------------------------------|
D|-------------------------------------------------------------------------|
A|-------------------------------------------------------------------------|
E|-------------------------------------------------------------------------|

e|----8-7-7-------------------------------8-7-7------------------------7-7-|
B|-----------9-9-8-8--8-9-8-9-8--9-8--8/9-------9-9-8-8--6-8-6-8-6-8--8-8-8|
G|-------------------------------------------------------------------------|
D|-------------------------------------------------------------------------|
A|-------------------------------------------------------------------------|
E|-------------------------------------------------------------------------|

e|7-8-7-7------------------------------------------------------------------|
B|--------9-9-8-8---6--2--2h5p2-1------------------------------------------|
G|---------------------------------------5-------5-------------------------|
D|----------------------------------------5--5----5--5---------------------|
A|--------------------------------------3--3----3--3-----------------------|
E|-------------------------------------------------------------------------|

e|-------------------------------------------------------------------------|
B|-------------------------------------------------------------------------|
G|--5-4-4------------------------------5-4-4-------------------------4-4-4-|
D|--------6-6-5-5--5-6-5-6-5--6-5--5/6-------6-6-5-5--3-5-3-5-3--5--5-5-5--|
A|-------------------------------------------------------------------------|
E|-------------------------------------------------------------------------|

e|-------------------------------------------------------------------------|
B|-------------------------------------------------------------------------|
G|--5-4-4------------------------------------------------------------------|
D|--------6-6-5-5---3---3--2--------------------------5-5---4-4---5-5---4-4|
A|--------------------4--4-3-----4h5p4--4-6-8--6-4--3-----3-----3-----3----|
E|-------------------------------------------------------------------------|

e|-------------------------------------------------------------------------|
B|-------------------------------------------------------------------------|
G|-------------------------------------------------------------------------|
D|--------------------------------------------------5-5---4-4---5-5---4-4--|
A|-4h5p4--4-6-8--6-4--3-2------4h5p4--4-6-8--6-4--3-----3-----3-----3------|
E|------------------------4-3----------------------------------------------|

e|-------------------------------------------------------------------------|
B|-------------------------------------------------------------------------|
G|-------------------------------------------------------------------------|
D|-------------------------------------------------------------------------|
A|-4h5p4-4-6-8--6-4-3--3-5-7--5-3--1-3-5-------------2-3-2-------2-3-2----2|
E|---------------------------------------4-6-8---3-4-------4-3-4-------4-3-|
   vvvvvvvvvvvvvvv*************~{Palm Mute}~*************vvvvvvvvvvvvvv
e|-------------------------------------------------------------------------|
B|-------------------------------------------------------------------------|
G|-----5---------5---------5-----------------------------------------------|
D|------5---5-----5---5-----5---5--(Repeat a few times)--------------------|
A|---3---3-----3---3-----3---3---------------------------------------------|
E|-------------------------------------------------------------------------|

e|------4--7-8--7---7-8-7-8-7-------4--7-8--7---5-7--5-7--7-11--7-11-------|
B|--5---4--7-8--7---7-8-7-8-7---5---4--7-8--7---5-7--5-7--7-11--7-11-------|
G|--4---------------------------4------------------------------------------|
D|-------------------------------------------------------------------------|
A|-------------------------------------------------------------------------|
E|-------------------------------------------------------------------------|

e|------4--7-8--7---7-8-7-8-7-------4--7-8--7---8--5--7--0-----------------|
B|--5---4--7-8--7---7-8-7-8-7---5---4--7-8--7---8--5--7--0-----------------|
G|--4---------------------------4------------------------------------------|
D|-------------------------------------------------------------------------|
A|-------------------------------------------------------------------------|
E|-------------------------------------------------------------------------|
  vvvvvvvvvvvvvvvvvv(Palm mute)vvvvvvvvvvvvvvvvvvv
e|-------------------------------------------------------------------------|
B|-------------------------------------------------------------------------|
G|-----5---------5---------5-----------------------------------------------|
D|------5---5-----5---5-----5---5--(Repeat a few times)--------------------|
A|---3---3-----3---3-----3---3---------------------------------------------|
E|-------------------------------------------------------------------------|

e|-------------------------------------------------------------------------|
B|------4--7-8--7---7-8-7-8-7-------4--7-8--7---5-7--5-7--7-11--7-11-------|
G|--4---3--6-7--6---6-7-6-7-6---4---4--6-7--6---4-6--4-6--4-10--6-10-------|
D|--4---------------------------4------------------------------------------|
A|-------------------------------------------------------------------------|
E|-------------------------------------------------------------------------|

e|-------------------------------------------------------------------------|
B|------4--7-8--7---7-8-7-8-7-------4--7-8--7---8--5--7--0-----------------|
G|--4---3--6-7--6---6-7-6-7-6---4---3--6-7--6---7--4--6--------------------|
D|--4---------------------------4------------------------4-----------------|
A|-------------------------------------------------------------------------|
E|-------------------------------------------------------------------------|

e|-------------------------------------------------------------------------|
B|---------------------9-9------8-8------9-9------8-8----------------------|
G|---6--6-8-10--8-6-5--8-8---5--7-7---5--8-8---5--7-7----6--6-8-10--8-6-5-4|
D|---6--6-8-10--8-6-5--------5--------5--------5---------6--6-8-10--8-6-5-4|
A|-------------------------------------------------------------------------|
E|-------------------------------------------------------------------------|

e|-------------------------------------------------------------------------|
B|--------------------------9-9------8-8------9-9------8-8-----------------|
G|-1-0----6--6-8-10--8-6-5--8-8---5--7-7---5--8-8---5--7-7---6--6-8-10--8-6|
D|-1-0----6--6-8-10--8-6-5--------5--------5--------5--------6--6-8-10--8-6|
A|-------------------------------------------------------------------------|
E|-------------------------------------------------------------------------|
                                vvvvvvvv Really fast vvvvvvv    
e|-------------------------------------------------------------------------|
B|----------------------------------0-1-0-------0-1-0-----0----------------|
G|-5--5-7-9--7-5--3-5-7--1-3-5--0-1---0---1-0-1---0---1-0------------------|
D|-5--5-7-9--7-5--3-5-7--1-3-5--0-1-4---4-1-0-1-4---4-1-0-4----------------|
A|-------------------------------------------------------------------------|
E|-------------------------------------------------------------------------|

e|-------------------------------------------------------------------------|
B|------4--7-8--7---7-8-7-8-7-------4--7-8--7---5-7--5-7--7-11--7-11-------|
G|--4---3--6-7--6---6-7-6-7-6---4---4--6-7--6---4-6--4-6--4-10--6-10-------|
D|--4---------------------------4------------------------------------------|
A|-------------------------------------------------------------------------|
E|-------------------------------------------------------------------------|

e|-------------------------------------------------------------------------|
B|------4--7-8--7---7-8-7-8-7-------4--7-8--7---8--5--7--0-----------------|
G|--4---3--6-7--6---6-7-6-7-6---4---3--6-7--6---7--4--6--------------------|
D|--4---------------------------4------------------------4-----------------|
A|-------------------------------------------------------------------------|
E|-------------------------------------------------------------------------|

e|----5-4-5-4-5-----5-4-5-4-5------76-676-676-676-6----5-4-5-4-5-----5-4-5-|
B|---------------5-------------5-----7---7---7---7----------------5--------|
G|-------------------------------------------------------------------------|
D|-------------------------------------------------------------------------|
A|-------------------------------------------------------------------------|
E|-------------------------------------------------------------------------|

e|4-5------7-8-7-6-7-8-9-12---5-4-5-4-5-----5-4-5-4-5------76-676-676-676-6|
B|-----5---------------------------------5-------------5-----7---7---7---7-|
G|-------------------------------------------------------------------------|
D|-------------------------------------------------------------------------|
A|-------------------------------------------------------------------------|
E|-------------------------------------------------------------------------|

e|-5-4-5-4-5------5-4-5-4-5------3--5-7-5-3-3-5-7-8--8-10-12--10-8-13--8---|
B|------------5--------------5------------------------------------------9-8|
G|-------------------------------------------------------------------------|
D|-------------------------------------------------------------------------|
A|-------------------------------------------------------------------------|
E|-------------------------------------------------------------------------|

e|---7-8-7-7------------------------------8-7-7------------------------7-7-|
B|--8--------9-9-8-8--8-9-8-9-8--9-8--8/9-------9-9-8-8--6-8-6-8-6-8--8-8-8|
G|-9-----------------------------------------------------------------------|
D|-------------------------------------------------------------------------|
A|-------------------------------------------------------------------------|
E|-------------------------------------------------------------------------|

e|7-8-7-7----------------0-------------------------------------------------|
B|--------9-9-8-8--6-2t3-1-------------------------------------------------|
G|-----------------------0-------------------------------------------------|
D|-------------------------------------------------------------------------|
A|-------------------------------------------------------------------------|
E|-------------------------------------------------------------------------|



| /  slide up
| \  slide down
| h  hammer-on
| p  pull-off
| ~  vibrato
| +  harmonic
| x  Mute note





Comments


Popular Misc Computer Games tabs & chords
Donkey Kong 64 - Frantic Factory Bass Tabs
Legend Of Zelda - Zeldas Lullaby Chords
18 Wheels Of Steel - American Long Haul Tabs
Battlefield Heroes Theme Intro Tabs
Donkey Kong - Rivet Board Tabs
Dragon Warrior 1 Tabs
Final Fantasy - Youre Not Alone Tabs
Final Fantasy X - Hymn Of The Faith Tabs
Super Mario Brothers Theme Tabs
Super Mario Underworld Theme Tabs


Song lyrics



↑ Back to top | Tablatures and chords are parodies/interpretations of the original songs. You may use it for private study, scholarship, research or language learning purposes only
© 2014 AZChords.com Contact us | Privacy policy | DMCA | Add/correct tabs | Request tabs | Top 50 tabs