» » »

Misc Computer Games, Baldurs Gate Ii - The Pirates Isle Tabs (ver.1)

Artists:  A B C D E F G H I J K L M N O P Q R S T U V W X Y Z # 

Baldurs Gate Ii - The Pirates Isle Tabs (ver.1)

Misc Computer Games Tabs
Rating:
0/5 (0 votes)
Baldurs Gate Ii - The Pirates Isle lessons Tabs too difficult? Try these video lessons and learn fast
                Baldurs Gate II - The Pirates Isle

Listen to the song for the rhythm and timing:

|-----------------------------------------------------------------------|
|--------------------------8---------6h8h10--8--11--10p8--10--8h10------|
|--7-----10--9p7p6--10--9-----10--9---------------------------------10--|
|-----7-----------------------------------------------------------------|
|-----------------------------------------------------------------------|
|-----------------------------------------------------------------------|

|-----------------------------------------------------------------------|
|--10--8----------------------------------------------------------------|
|---------9--10--9h10p9p7--10--9--10--------------6--7--9---------------|
|-------------------------------------11--9h11p7------------------------|
|-----------------------------------------------------------------------|
|-----------------------------------------------------------------------|


|--------------------------------15--13------13h15h17--15--18--17p15----|
|--15------18--17p15p14--18--17----------17-----------------------------|
|------14---------------------------------------------------------------|
|-----------------------------------------------------------------------|
|-----------------------------------------------------------------------|
|-----------------------------------------------------------------------|

|--17--15h17----17--15--------------------------------------------------|
|------------18---------17--18--17h18p17p15--18--17--18-----------------|
|--------------------------------------------------------18--16h18p14---|
|-----------------------------------------------------------------------|
|-----------------------------------------------------------------------|
|-----------------------------------------------------------------------|

|----------------22--17--22--20p18p17-----17--20--18p17p15-----15--17---|
|--14--15--17--------------------------18-------------------18----------|
|-----------------------------------------------------------------------|
|-----------------------------------------------------------------------|
|-----------------------------------------------------------------------|
|-----------------------------------------------------------------------|

|-18--15--17--17---22--17--22--20--17--17--17------------17--17--15--17-|
|---------------------------------------------20--18--17----------------|
|-----------------------------------------------------------------------|
|-----------------------------------------------------------------------|
|-----------------------------------------------------------------------|
|-----------------------------------------------------------------------|

|--------------------------------15--13------13h15h17--15--18--17p15----|
|--15------18--17p15p14--18--17----------17-----------------------------|
|------14---------------------------------------------------------------|
|-----------------------------------------------------------------------|
|-----------------------------------------------------------------------|
|-----------------------------------------------------------------------|

|--17--15h17----17--15--------------------------------------------------|
|------------18---------17--18--17h18p17p15--18--17--15-----------------|
|--------------------------------------------------------18--16h18p14---|
|-----------------------------------------------------------------------|
|-----------------------------------------------------------------------|
|-----------------------------------------------------------------------|

|-----------------------------------------------------------------------|
|--14--17--14--15-------------------------------------------------------|
|-----------------------------------------------------------------------|
|-----------------------------------------------------------------------|
|-----------------------------------------------------------------------|
|-----------------------------------------------------------------------|
            
Submit corrections

comments powered by Disqus
↑ Back to top | Misc Computer Games Tabs for Baldurs Gate Ii - The Pirates Isle. Lyrics for acoustic guitar and electric guitar. Tablatures and chords are parodies/interpretations of the original songs. You may use it for private study, scholarship, research or language learning purposes only