» » »

Misc Computer Games, Baldurs Gate Ii - City Gates Tabs (ver.1)

Artists:  A B C D E F G H I J K L M N O P Q R S T U V W X Y Z # 

Baldurs Gate Ii - City Gates Tabs (ver.1)

Misc Computer Games Tabs
 Rating:
4/5 (4 votes)
Baldurs Gate Ii - City Gates lessons Tabs too difficult? Try these video lessons and learn fast
                Baldurs Gate II - City Gates

Listen to the song for the rhythm of the notes:

|------------------------------------------------------------------------|
|--14--19--14--19-----11--12--11--9--------------------------------------|
|-------------------------------------11---------------------------------|
|-------------------------------------------11---------------------------|
|------------------------------------------------------------------------|
|------------------------------------------------------------------------|

|------------------------------------------------------------------------|
|--14--19--14--19-----11--12--11--9--------------------------------------|
|-------------------------------------11---------------------------------|
|------------------------------------------------------------------------|
|------------------------------------------------------------------------|
|------------------------------------------------------------------------|

|------------------------------------------------------------------------|
|-------------------------------------------16---------------------------|
|------13------13------15--16--15--13--15--------------------------------|
|--13------13------------------------------------------------------------|
|------------------------------------------------------------------------|
|------------------------------------------------------------------------|

|------------------------------------------------------------------------|
|------------------------------------------------------------------------|
|------13------13--------15--------13------------------------------------|
|--13------13--------------------------------11--------13----------------|
|------------------------------------------------------------------------|
|------------------------------------------------------------------------|

|-----------------------------------------------------15---------15------|
|------13--17-----15-----17-------17----13------------------17-------17--|
|--14----------------------------------------16---14---------------------|
|------------------------------------------------------------------------|
|------------------------------------------------------------------------|
|------------------------------------------------------------------------|

|-----------------------13--13-----13------------------------------------|
|-15------------15--17----------15-----15--13--------------13--17--13----|
|-----16--12-----------------------------------14------14----------------|
|-------------------------------------------------15---------------------|
|------------------------------------------------------------------------|
|------------------------------------------------------------------------|

|---------------------------15--14---15--14--15----14--12----------------|
|----------------------------------------------------------15---13--12---|
|--12--14--15--15--14--12------------------------------------------------|
|------------------------------------------------------------------------|
|------------------------------------------------------------------------|
|------------------------------------------------------------------------|

|--15--14--15-----14---12------------------------------------------------|
|--------------------------15---13--12-----------------------------------|
|------------------------------------------------------------------------|
|------------------------------------------------------------------------|
|------------------------------------------------------------------------|
|------------------------------------------------------------------------|
            
Submit corrections

comments powered by Disqus
↑ Back to top | Misc Computer Games Tabs for Baldurs Gate Ii - City Gates. Lyrics for acoustic guitar and electric guitar. Tablatures and chords are parodies/interpretations of the original songs. You may use it for private study, scholarship, research or language learning purposes only