» » »

Misc Computer Games, Assassins Creed 2 - Earth Tabs (ver.1)

Artists:  A B C D E F G H I J K L M N O P Q R S T U V W X Y Z # 

Assassins Creed 2 - Earth Tabs (ver.1)

Misc Computer Games Tabs
Rating:
0/5 (0 votes)
Assassins Creed 2 - Earth lessons Tabs too difficult? Try these video lessons and learn fast
                Jesper Kyd - Assassin's Creed II - Earth


Guitar 1: Acoustic Tuned Standard (E A D G B E)
Guitar 2: Acoustic Tuned Standard (E A D G B E)
Guitar 3: Electric Tuned Drop D   (D A D G B E)

Riff 1 (Guitar 1)
E|-----13-10-----|
B|--10-----------|
G|-----------12--|
D|---------------|
A|---------------|
E|---------------|

Riff 2 (Guitar 2)
E|--------|
B|--------|
G|-----7--|
D|--7~----|
A|--------|
A|--------|
    .  .   PM

Riff 3 (Guitar 3)(Clean)
E|---------------------|---------------------|
B|---------------------|---------------------|
G|--7~--10~--12~--14~--|--7~--10~--12~--10~--|
D|---------------------|---------------------|
A|---------------------|---------------------|
D|---------------------|---------------------|

Riff 4 (Bass)(Optional)
G|------------------|
D|------------------|
A|------3-5-1~--0~--|
D|--0~--------------|

Riff 5 (Guitar 3)(Distortion)
E|------|
B|------|
G|------|
D|--0~--|
A|--0~--|
D|--0~--|

Riff 6 (Guitar 3)(Distortion)
E|------------|
B|------------| A bit hard to hear
G|------------| over all the instruments
D|------------| playing at once, but
A|--00000--0--| It's defiantly there.
D|--00000--0--|
    .....  .   PM
            
Submit corrections

comments powered by Disqus
↑ Back to top | Misc Computer Games Tabs for Assassins Creed 2 - Earth. Lyrics for acoustic guitar and electric guitar. Tablatures and chords are parodies/interpretations of the original songs. You may use it for private study, scholarship, research or language learning purposes only