» » »

Misc Computer Games, Assassin Cross Sunset Tabs (ver.1)

Artists:  A B C D E F G H I J K L M N O P Q R S T U V W X Y Z # 

Assassin Cross Sunset Tabs (ver.1)

Misc Computer Games Tabs
 Rating:
4/5 (4 votes)
Assassin Cross Sunset lessons Tabs too difficult? Try these video lessons and learn fast
1
                (Theme)

e-------0---0---1--0-------0--------0---------------------------0-------|
b--0-1--1----3--3--0--3--1-1--0-1-3-------1-0---1/3-3-1-0-------1-------|
g-2-----2-------2--1-------2------------2-----2-----0-----2-0-2-2-------|
d-------2----0-----2-------2----------2-------0-----0-----2-----2-------|
a----0-------------2-----0----------0---------------2-----2---0---------|
e------------------0--------------------------------3-----0-------------|

e----------0-1---3--0-----0--1/0----1-------0-----------1---------|
b----0-1-3-------1-------1--------3--------0----3--1---1---0-1-3--|
g--2-------------0------2-----------------1-----------2-----------|
d----------------2-----2----------0------2---------3-3------------|
a----------------3----------------------2-------------------------|
e--------------------------------------0--------------------------|

0-------------------------------0------|
---1-0------1h3-3-1-0----------1-------|
---------2-------------2-0----2--------|
---------0-------------------2---------|
0---------------------------0----------|
----------------3------0---------------|
            
Submit corrections

comments powered by Disqus
↑ Back to top | Misc Computer Games Tabs for Assassin Cross Sunset. Lyrics for acoustic guitar and electric guitar. 1 Tablatures and chords are parodies/interpretations of the original songs. You may use it for private study, scholarship, research or language learning purposes only