» » »

Misc Computer Games, Animusic - Aqua Harp Tabs (ver.1)

Artists:  A B C D E F G H I J K L M N O P Q R S T U V W X Y Z # 

Animusic - Aqua Harp Tabs (ver.1)

Misc Computer Games Tabs
 Rating:
4/5 (4 votes)
Animusic - Aqua Harp lessons Tabs too difficult? Try these video lessons and learn fast
                --------------------
AQUA HARP - Animusic
--------------------

Tuning: Standard (E-A-D-G-B-e)


NOTE: Beginning and ending of song is omitted. EDIT: Check the intro tab for the intro.
  
e|-----------0--3--0--------|--------------------0--3--|
B|--------0-----------0--2--|-----------0--2--3--------|
G|--------------------------|--------2-----------------|
D|-----2--------------------|-----2--------------------|
A|--------------------------|--0-----------------------|
E|--0-----------------------|--------------------------|



e|-----------0--7--0-----5--|--------------3-----2--3--|
B|--------0-----------0-----|-----------2-----2--------|
G|--------------------------|--------2-----------------|
D|-----2--------------------|-----2--------------------|
A|--------------------------|--0-----------------------|
E|--0-----------------------|--------------------------|



e|-----------0--3--0--------|--------------------0--3--|
B|--------0-----------0--2--|-----------0--2--3--------|
G|--------------------------|--------2-----------------|
D|-----2--------------------|-----2--------------------|
A|--------------------------|--0-----------------------|
E|--0-----------------------|--------------------------|



e|-----------0--10--0-----9--|--------------7--------5--|
B|--------0------------0-----|-----------2-----2--------|
G|---------------------------|--------2-----------2-----|
D|-----2---------------------|-----2--------------------|
A|------------NOT-SURE-ABOUT-|--0--------NOT-SURE-ABOUT-|
E|--0-----------THIS-PART----|-------------THIS-PART----|



e|--------------9--5--2--4--|-----------0--4--0-----2--|
B|--------2--7--------------|--------------------2-----|
G|--------------------------|--------6-----------------|
D|-----4--------------------|-----6--------------------|
A|--------------------------|--4-----------------------|
E|--2-----------------------|--------------------------|



e|--------------2--------0--|--------------0--2--4--5--|
B|--------0--3-----3--0-----|-----------0--------------|
G|--------------------------|--------1-----------------|
D|-----4--------------------|-----2--------------------|
A|--2-----------------------|--------------------------|
E|--------------------------|--0-----------------------|



e|--------------9--5--2--4--|-----------0--4--7--0--2--|
B|--------2--7--------------|--------------------------|
G|--------------------------|--------6-----------------|
D|-----4--------------------|-----6--------------------|
A|--------------------------|--4-----------------------|
E|--2-----------------------|--------------------------|



e|--------------2--4--2--0--|-----------0--12----------|
B|--------0--3--------------|--------0-----------------|
G|--------------------------|--------------------------|
D|-----4--------------------|-----2--------------------|
A|--2-----------------------|--------------------------|
E|--------------------------|--0-----------------------|



e|--------------0--------5--|-----5--3-----5-----------|
B|-----------1-----1--------|--------------------1-----|
G|--------2-----------2-----|--2--------2-----2-----2--|
D|-----2--------------------|--------------------------|
A|--0-----------------------|--------------------------|
E|--------------------------|--------------------------|



e|--------------0--------5--|--------7--3--------5--0--|
B|-----------1-----1--------|--------------------------|
G|--------2-----------2-----|--------------------------|
D|-----2--------------------|-----2-----------2--------|
A|--0-----------------------|--0-----------0-----------|
E|--------------------------|--------------------------|



e|--------------0--------5--|-----5--3-----5-----------|
B|-----------1-----1--------|--------------------1-----|
G|--------2-----------2-----|--2--------2-----2-----2--|
D|-----2--------------------|--------------------------|
A|--0-----------------------|--------------------------|
E|--------------------------|--------------------------|



e|--------------0--------5--|--------7--3--------5--0--|
B|-----------1-----1--------|--------------------------|
G|--------2-----------2-----|--------------------------|
D|-----2--------------------|-----2-----------2--------|
A|--0-----------------------|--0-----------0-----------|
E|--------------------------|--------------------------|

...then repeat from the start.


/  slide up
\  slide down
h  hammer-on
p  pull-off
~  vibrato
+  harmonic
x  Mute note
            
Submit corrections

comments powered by Disqus
↑ Back to top | Misc Computer Games Tabs for Animusic - Aqua Harp. Lyrics for acoustic guitar and electric guitar. Tablatures and chords are parodies/interpretations of the original songs. You may use it for private study, scholarship, research or language learning purposes only