» » »

Misc Computer Games, Animal Crossing Wild World Tabs (ver.1)

Artists:  A B C D E F G H I J K L M N O P Q R S T U V W X Y Z # 

Animal Crossing Wild World Tabs (ver.1)

Misc Computer Games Tabs
 Rating:
4/5 (4 votes)
Animal Crossing Wild World lessons Tabs too difficult? Try these video lessons and learn fast
1
                (Theme)
 Animal Crossing: Wild World Title Theme                     

I'm very proud of this! I haven't found this tab anywhere. 
                                                                   KazumiTotaka
Guitar



      E  E  E  Q    Q    E     E  E  Q    Q    E  E     
E||-------------------------|-------------------------||
B||-------------------------|-------------------------||
G||*--------6--7---------6--|------------------------*||
D||*------------------------|--4--7--9---------------*||
A||------7------------------|-------------------------||
E||---5---------------------|-------------------------||


  E  E  E  E  Q    E  E      E  E  E   E  E  E  E  E     E  Q    Q    E  E  E   
-----------7--5-------4p--|--2------------------------|------------------------|
--------------------------|--------5p--3-----7--5-----|------------------------|
--7--6--9-----------------|---------------------------|------------------------|
--------------------------|---------------------------|--7--7------------------|
--------------------------|---------------------------|------------------------|
--------------------------|---------------------------|------------------------|


  E  E  E  E  S E   E   S S S     Q    Q     Q    Q    E   
-----------5----9--10~--------|--10----9----12----7----5--|
--7--5------------------------|---------------------------|
------------------------------|---------------------------|
------------------------------|---------------------------|
------------------------------|---------------------------|
------------------------------|---------------------------|


  H        E  E  E  E     Q    E  H        E     E  E  E  E  Q    E  E   
--9--------4--5--4--2--|--0----0--5-----------|--9-----7-----0----0--5--|
-----------------------|----------------------|-------------------------|
-----------------------|----------------------|-------------------------|
-----------------------|----------------------|-------------------------|
-----------------------|----------------------|-------------------------|
-----------------------|----------------------|-------------------------|


  W                   E  E  E  E  E  E  E  E     W                 
--L----------------|--0--9--7--9--7--0-----0--|--5----------------|
-------------------|--------------------------|-------------------|
-------------------|--------------------------|-------------------|
-------------------|--------------------------|-------------------|
-------------------|--------------------------|-------------------|
-------------------|--------------------------|-------------------|


  E  E   E   E  Q    Q       Q    E  H        E    
--7--9--11--13--9---------|-------6--7-----------||
---------------------7----|--7-------------------||
--------------------------|----------------------||
--------------------------|----------------------||
--------------------------|----------------------||
--------------------------|----------------------||




Duration Legend
---------------
W - whole
H - half
Q - quarter
E - 8th
S - 16th
T - 32nd
X - 64th
. - note dotted
|-n-|  - n-tuplets


Tablature Legend
----------------
L - tied note
x - dead note
g - grace note
(n) - ghost note
> - accentuded note
NH - natural harmonic
AH - artificial harmonic
TH - tapped harmonic
SH - semi harmonic
PH - pitch harmonic
h - hammer on
p - pull off
b - bend
br - bendRelease
pb - preBend
pbr - preBendRelease
brb - bendReleaseBend
\n/ - tremolo bar dip
\n - tremolo bar dive
-/n - tremolo bar Release up
/n\ - tremolo bar inverted dip
/n - tremolo bar return
-\n - tremolo bar Release down
S - shift slide
s - legato slide
/ -  slide into from below or out of upwards
\ -  slide into from above or out of downwards
~ - vibrato
W - wide vibrato
tr - trill
TP - tremolo picking
T - tapping
S - slap
P - pop
< - fade in
^ - brush up
v - brush down
            
Submit corrections

comments powered by Disqus
↑ Back to top | Misc Computer Games Tabs for Animal Crossing Wild World. Lyrics for acoustic guitar and electric guitar. 1 Tablatures and chords are parodies/interpretations of the original songs. You may use it for private study, scholarship, research or language learning purposes only