» » »

Misc Computer Games, Animal Crossing - Stale Cupcakes Kk Slider Tabs (ver.1)

Artists:  A B C D E F G H I J K L M N O P Q R S T U V W X Y Z # 

Animal Crossing - Stale Cupcakes Kk Slider Tabs (ver.1)

Misc Computer Games Tabs
 Rating:
4/5 (4 votes)
Animal Crossing - Stale Cupcakes Kk Slider lessons Tabs too difficult? Try these video lessons and learn fast
                Game: Animal Crossing
Tuning: Standard
This is my First Tab so sorry if its kinda rough. Emaile me any Comments, 
corrections, or Questions.



e|------0---0---0-|------0---0---0-|
B|--2-0---2---0---|--2-0---2---0---|
G|-2-2-2-2-2-2-2-2|-2-2-2-2-2-2-2-2|
D|----------------|2---------------|
A|0---------------|----------------|
E|----------------|----------------|


e|------0-------0-|------0-----0-2-|----0-------2---|----2---|
B|--2-0-----2-0---|----0-----3-----|--0---0---3---3-|--3---3-|
G|-2-2-2-2-2-2-2-2|--2------2-2-2-2|-2-2-2-2-2-2-2-2|-2-2-2-2|
D|----------------|-2-2-2-20-------|----------------|--------|
A|0-------0-------|----------------|4-------2-------|--------|
E|----------------|2---------------|----------------|0-------|



e|------0-------0-|------0-----0-2-|----0-----------|------0-------0-|
B|--2-0-----2-0---|----0-----3-----|--0---0---3---3-|--2-0-----2-0---|
G|-2-2-2-2-2-2-2-2|--2------2-2-2-2|-2-2-2-2-2-2-2-2|-2-2-2-2-2-2-2-2|
D|----------------|-2-2-2-20-------|----------------|----------------|
A|0-------0-------|----------------|4-------2-------|0-------0-------|
E|----------------|2---------------|------------0---|----------------|


e|2---2---2---1---|2---2---1---1---|2-----2-2---2---|0---0-----------|--------|
B|--3---3---0---0-|--2---2---0---0-|--2--2-2--2---2-|--0---0-3---3---|3---3---|
G|-2-2-2-2-1-1-1-1|-2-2-2-2-1-1-1-1|-2-20----2-2-2-2|-1-1-1-1--2---2-|--2---2-|
D|0---------------|----------------|--------0-------|---------4-4-4-4|-4-4-4-4|
A|--------4-------|2-------4-------|0---------------|4-------2-------|0-------|
E|----------------|----------------|----------------|----------------|--------|


e|------0-------0-|------0-----0-2-|----0-----------|
B|--2-0-----2-0---|----0-----3-----|--0---0-3-------|
G|-2-2-2-2-2-2-2-2|--2------2-2-2-2|-2-2-2-22-------|
D|----------------|-2-2-2-20-------|--------4-------|
A|0-------0-------|----------------|4---------------|
E|----------------|2---------------|--------0-------|


e|5---------4-----|2---------------|--2---2---0---0-|--2---2---0---0-|----------------|
B|--2---2-------2-|--2---2-2-------|--2---2---0---0-|--2---2---0---0-|--3---3-3-------|
G|-2-2-2-2-2-2-2-2|-2-2-2-2--------|-2-2-2-2-1-1-1-1|-2-2-2-2-1-1-1-1|--2---2-2-------|
D|4---4---3---3---|2---2----141-141|0---0-----------|0---0-----------|-4-4-4-44-------|
A|----------------|--------2---2---|--------4---4---|--------4---4---|2---2-----------|
E|----------------|----------------|----------------|----------------|--------0-------|


e|------0-------0-|----------------|
B|--2-0---2---0---|2---------------|
G|----------2-----|2---------------|
D|-2-2-2-2-2-2-2-2|2---------------|
A|0---------------|0---------------|
E|----------------|----------------|


Enjoy!
            
Submit corrections

comments powered by Disqus
↑ Back to top | Misc Computer Games Tabs for Animal Crossing - Stale Cupcakes Kk Slider. Lyrics for acoustic guitar and electric guitar. Tablatures and chords are parodies/interpretations of the original songs. You may use it for private study, scholarship, research or language learning purposes only